Metal TR.NET - Yerli Gruplarina Sahip CIK !  
  Giriş veya Kayıt Ol
::  Ana Sayfa  ::  Hesabınız  ::  Forumlar  ::  Haberler  ::  Kritik  ::  Fotoğraf Galerisi  ::  Hosting  ::  Köşe Yazıları  ::
Menü
 Site
tree-T.gif Ana Sayfa
 Forum
 Haber Gönder
 Haber Arşivi
 Site Kadrosu
 Extra
 Hosting
 En İyi 10
 İnteraktif
 Demo & Mp3 Arşivi
 Video İzleme
 Fotoğraf Galerisi
 Destek
 Destekleyenler
 Linkekle
 Bizi Öner!
 
İçerik
. Yerli Gruplar
. Yabancı Gruplar
. Biyografiler
. Albümler
. Albüm Kritikleri
. Röportajlar
. Köşe Yazıları
. Köşe Yazıları Arşiv
. Dergiler
. Etkinlikler
· Gitar & TAB
 
Albüm Kritikleri
· KORN - The path of totality
· Hypocrisy-A Taste of Extreme Divinity (2009)
· Cyntia - Endless World (2012)
· Tiamat - The Scarred People
· Moonspell Alpha Noir-Omega White.
· Ghost - Opus Eponymous
· Testament - Dark Roots of Earth
· Lamb of God - Resolution
· Volbeat Live From Beyond Hell/Above Heaven
· Pentagram - MMXII
 
Kısa Haberler

[ Haber Arşivi ]
 
Son 10 Haber
· Dark Tranquillity Türkiye Turnesi 2021
[ 0 yorum - 1843 okuma ]
· SECURIS yeni Albümünü yayınladı.
[ 0 yorum - 4413 okuma ]
· OPETH 22 Mart 2015′te İstanbul'da, 23 Mart'ta ise Ankara'da
[ 0 yorum - 12524 okuma ]
· Blind Guardian Istanbul konseri 14 Mayıs 2015
[ 0 yorum - 12901 okuma ]
· Blind Guardian 8 yıl aradan sonra yeniden Ankara’da
[ 0 yorum - 12254 okuma ]
· DYING FETUS 11 HAZİRAN 2015 İstanbul'da
[ 0 yorum - 13788 okuma ]
· Kurt Cobain belgeselinden ilk fragman geldi
[ 0 yorum - 13714 okuma ]
· Takıntı - Buhran klibi yayınlandı!
[ 0 yorum - 14757 okuma ]
· Wayne Static 48 yaşında hayatını kaybetti
[ 0 yorum - 15207 okuma ]
· Niklas Kvarforth video röportajı
[ 0 yorum - 14327 okuma ]

[ Devamı Haberler Bölümünde ]
 
Fotoğraf Galerisi

B Noktası



B Noktası



B Noktası



Heretic Soul @ Waldb ...



Heretic Soul



Heretic Soul



Heretic Soul @ Rock ...



Anoreksi Promo 2011



Anoreksi Promo 2011



Anoreksi Promo 2011


[ Fotoğraf Galerisi ]
 
Rastgele Biyografi


Secropiagor
 
MetalTR Arama
 
Üyelik
 
Üye Olun
Kayıp Şifre

Güvenlik Kodu: Güvenlik Kodu
Güvenlik Kodunu Girin:
 
Üyelik:
Bugün: 0
Dün: 0
Bekleyen Üyelik(ler): 55
Toplam Üye: 42,745
En Son Üye: Mantikdisi

Şu An Bağlı:
Misafir(ler): 147
Üye(ler): 0
Toplam: 147
 
Forumlardan
Last 10 Forum Messages

Şu anda ne dinliyorsunuz?
Son mesaj atan; _MeT_

forumu özlemişim lan
Son mesaj atan; Nymphetamine_e

Dark Tranquillity Türkiye Turnesi 2021
Son mesaj atan; blastrula

Düşünce İle Permiyen Dönemine Zaman Kapısı Açma
Son mesaj atan; kill_the_king

Reenkarnasyon Metafiziği
Son mesaj atan; _MeT_

13 yil sonra
Son mesaj atan; _MeT_

'Mastürbasyon Köyü'ndenim'
Son mesaj atan; ImpLosioN

Taşı Altına Dönüştürme
Son mesaj atan; elvistuna

Düşünce Nedir
Son mesaj atan; elvistuna

Şeytanlar Kongresi
Son mesaj atan; elvistuna


[ Metal TR.NET - Yerli Gruplarina Sahip CIK ! ]
 
Köşe Yazıları
 
metaltr.net :: Başlığı Görüntüle - STEVE VAÝ-audiance listening-bad horsie-ballerina-banghok..
 
 SSSSSS   AramaArama   Üye ListesiÜye Listesi   Kullanıcı GruplarıKullanıcı Grupları Üye ListesiCan Sıkıntısı Giderici!   
 ProfilProfil   Özel mesajlarınızı kontrol etmek için login olunÖzel mesajlarınızı kontrol etmek için login olun     GirişGiriş 
GünlüklerGünlükler    Günlük Kontrol PaneliGünlük Kontrol Paneli    GünlüğümGünlüğüm

STEVE VAÝ-audiance listening-bad horsie-ballerina-banghok..

 
Yeni Başlık Gönder   Cevap Gönder    metaltr.net Forum Ana Sayfası -> Gitar / Tab
Önceki başlık :: Sonraki başlık  
Yazar Mesaj
Novembre
Geçerken Uğrayan
Geçerken Uğrayan


Kayıt: Oct 09, 2004
Mesajlar: 5


MesajTarih: Pts Arl 06, 2004 8:10 pm    Mesaj konusu: STEVE VAİ-audiance listening-bad horsie-ballerina-banghok.. Alıntıyla Cevap Ver
Mesaj: #1   

the Audiance Is Listening
Steve Vai


Steve Vai - The Audiance is listening

#----------------------------------PLEASE NOTE---------------------------------#
#This file is the author's own work and represents their interpretation of the #
#song. You may only use this file for private study, scholarship, or research. #
#------------------------------------------------------------------------------##
#

Date: Tue, 16 Apr 1996 13:02:59 +0200 (MET DST)
From: Jonsson
Subject: Tab: The Audiance is listening by Steve Vai

This is my first tribute to all you Vai-fans out there.
This cool song is quite tricky at first, so pay close allention
to the rythm. One you've memorised the rythm in your head,
then the rest is child-stuff, exept for the speed of the song.

If there is interest in me tab-ing the rest of the song, I can do it.
Mail your comments to this adress:

See ya!
Andreas Jonsson/Sweden

------
------

(1:16) You're getting out of control.....
E-|-------------------------3---------------------|-------------------------3-|
B-|------------------7------3---------------------|------------------7------3-|
G-|-----2-----5------7-----------------2-------2--|-----2-----5------7--------|
D-|-----2-----5------------------------2-------2--|-----2-----5---------------|
A-|-3p0----/7---6-5-----3-----2--0---------------|-3p0----/7---6-5-----3----|
E-|----------------------------------3---3-2-1----|---------------------------|

P.H---| P.H
E-|------------5-------8---------5---|-----------------------|----------------|
B-|------------5-------8---------5---|-----------------------|----------------|
G-|----------------------------------|-----------------------|----------------|
D-|----------------------------------|-----------------------|----------------|
A-|--2--0---/6----6/7-----5h6h7------|---5-------------------|----------------|
E-|----------------------------------|------7--5--3--5p3-0-0-|-3--5b(6)r5--3p0|

P.H--| P.H--| P.H
E-|----------|----------------------|-----------------------------------------|
B-|----------|----------------------|-----------------------------------------|
G-|----------|----------------------|-----------------------------------------|
D-|----------|----------------------|------------------0--2-------------------|
A-|--5b(7)---|--5-------------------|------------------0--2-------------------|
E-|----------|-----7--5--3--5p3-0-0-|-3--5b(6)r5--3p0-----0-------------------|
Bad Horsie
Steve Vai


Steve Vai - Bad Horsie

#----------------------------------PLEASE NOTE---------------------------------#
#This file is the author's own work and represents their interpretation of the #
#song. You may only use this file for private study, scholarship, or research. #
#------------------------------------------------------------------------------##
From: Richard J H Warren
Date: Mon, 03 Jul 95 09:48:21 GMT
Subject: Re: REQ: Bad Horsie by Steve Vai

Yeah, this tune is UNBELIEVABLE. I reckon that it's Steve's best ever. It's
raw sounding, and has one of the coolest riffs known to man!!!!

I'm working on it at the moment. I've figured out most of it, and I'm a
quarter of the the way through the mind - numbingly fast solo!

The main riff, then!
(This picks up after the intro, Drums and Bass, horse, etc.)
To do this right, you need to tune to C,G,C,F,A,D (Low to high). That's
a dropped - D tuning down a whole step! I suggest you use heavy strings!
I read somewhere that he plays the riff with a slide, but if you play
rhythmically precisely with ya finger, it seems to work!

The exclamation marks indicate bars. The x's indicate muted strumming.

------------------------------!-----------------------------------!
------------------------------!-----------------------------------!
------------------------------!-----------------------------------!
-0-0-x-x-0-0-x--0-0-x-x-0---x-!-0-0-x-x-0-0-x--0-0-x-x-10/12--12-!
-0-0-x-x-0-0-x--0-0-x-x-0---x-!-0-0-x-x-0-0-x--0-0-x-x-10/12--12-!
-0-0-x-x-0-0-x--0-0-x-x-0---x-!-0-0-x-x-0-0-x--0-0-x-x-10/12--12-!

------------------------------!-----------------------------------!
------------------------------!-----------------------------------!
------------------------------!-----------------------------------!
-5/6-5-0-2/3-0-2-3-0-2-3-2-0--!-65-0-2/3--0-7/9-0-7/10~~~~--10--!
-5/6-5-0-2/3-0-2-3-0-2-3-2-0--!-65-0-2/3--0-7/9-0-7/10~~~~--10--!
-5/6-5-0-2/3-0-2-3-0-2-3-2-0--!-65-0-2/3--0-7/9-0-7/10~~~~--10--!

That's the main riff. I may as well post the part of the solo I've
figured out. I'd be gratefull if anyone posts corrections the full
version, etc.

The bit I've worked out is where the tapping bit starts.(9th bar?!)
t t t t t t t t t t
-10-13-15-13-15-13-15-13-15-13-15-13-15-13-15-13-15-13-15-13-15-13-
-------------------------------------------------------------------
-------------------------------------------------------------------
-------------------------------------------------------------------
-------------------------------------------------------------------
-------------------------------------------------------------------
t t t t t t t
-15-13-10-13-15-13-10-13-15-13-10-13-15-13-10-13-15-12-9-15-12-9-15
-------------------------------------------------------------------
-------------------------------------------------------------------
-------------------------------------------------------------------
-------------------------------------------------------------------
-------------------------------------------------------------------
t t
-12-9-t-------------12-15-12-9-t-----------17-12-9-----------------
------15-12-9-t----------------15-10-9-10-----------etc...---------
--------------14-11------------------------------------------------
-------------------------------------------------------------------
-------------------------------------------------------------------
-------------------------------------------------------------------
As I said, please correct, or if you're mad enough to try to transcribe
the solo (like me!!!) go ahead! Good luck.

Ballerina
Steve Vai


Steve Vai - Ballerina

#----------------------------------PLEASE NOTE---------------------------------#
#This file is the author's own work and represents their interpretation of the #
#song. You may only use this file for private study, scholarship, or research. #
#------------------------------------------------------------------------------#
#

STEVE VAI
Ballerina 12/24

from : Cedric JOUBERT (FRANCE)
e-mail: [email protected]

Harmony effect /////
E---------------------------------|-----14------------------------------
B---------------------------------|-----12------------------------------
G---------------------------------|-----11------------------------------
D---------------------------------|-------------------------------------
A---------------------------------|-------------------------------------
E---------------------------------|-------------------------------------

///// ///// /////
E---14--------|--17-----------------17--------|-------------------------
B---12--------|--15-----------------15--------|-------------------------
G---11--------|--14-----------------14--------|-------------------------
D-------------|-------------------------------|-------------------------
A-------------|-------------------------------|-------------------------
E-------------|-------------------------------|-------------------------

Let ring ----------| ///// /////
E----------12-----------------12--------|----------------15-------------
B------10---------------------10--------|---------13--------------------
G---9-------------------------9---------|--12---------------------------
D---------------------------------------|-------------------------------
A---------------------------------------|-------------------------------
E---------------------------------------|-------------------------------

Let ring --------- ....
E---|--(15)-----------------|--------3-----------3-----|--------3-------
B---|-----------------------|-----1-----1-----1-----1--|-----1-----1----
G---|-----------------------|--------------------------|----------------
D---|-----------------------|--------------------------|----------------
A---|-----------------------|--3-----------3-----------|--3-------------
E---|-----------------------|--------------------------|----------------

E---3-----3-----|--------3-----------3-----|--------3-----3-----3-------
B------1-----1--|-----1-----1-----1-----1--|-----1-----1-----1-----3----
G---------------|--------------------------|----------------------------
D---------------|--------------------------|----------------------------
A---------------|--3-----------3-----------|--3-------------------------
E---------------|--------------------------|----------------------------

E----|--------6-----------6----|--------9-----9-----9----|--------------
B---/|-----4-----4-----4-------|-----7-----7-----7-------|------10------
G----|-------------------------|-------------------------|--------------
D----|-------------------------|-------------------------|--------------
A----|--6-----------6--------6/|--9--------------------9/|--12----------
E----|-------------------------|-------------------------|--------------

E---12--------------12-----|----------15------15------15------|---------
B-------10------10---------|------13------13------13------13--|---------
G--------------------------|----------------------------------|--0------
D--------------------------|----------------------------------|---------
A-----------12----------12/|--15------------------------------|---------
E--------------------------|----------------------------------|---------

E-------17-----5-----10-----|---------17-----5-----10--------|----------
B---15------3-----8------8--|-----15------3-----8------------|----------
G---------------------------|--0-----------------------------|--0-------
D---------------------------|--------------------------------|----------
A---------------------------|--------------------------------|----------
E---------------------------|--------------------------------|----------

E-------17-----5-----10-----|---------17-----5--------22--|-------------
B---15------3-----8------8--|-----15------3-----3/20------|-----15------
G---------------------------|--0--------------------------|--0----------
D---------------------------|-----------------------------|-------------
A---------------------------|-----------------------------|-------------
E---------------------------|-----------------------------|-------------

E---17-----5-----10-----|---------17-----5-----10--------|--------------
B-------3-----8------8--|-----15------3-----8------------|-----15-------
G-----------------------|--0-----------------------------|--0-----------
D-----------------------|--------------------------------|--------------
A-----------------------|--------------------------------|--------------
E-----------------------|--------------------------------|--------------

E---17-----5-----10-----|---------17-----5--------22--|--------17/22----
B-------3-----8------8--|-----15------3-----3/20------|--8--15/---------
G-----------------------|--0--------------------------|--0--------------
D-----------------------|-----------------------------|-----------------
A-----------------------|-----------------------------|-----------------
E-----------------------|-----------------------------|-----------------

E----------1710--|--------17/22---------17/20--|--------17/22----------
B---2015---------|--8/15---------2015---------|--8/15---------20------
G-----------------|--0--------------------------|-----------------------
D-----------------|-----------------------------|-----------------------
A-----------------|-----------------------------|-----------------------
E-----------------|-----------------------------|-----------------------

E--------17/20--|--------17/22--22--22--22--22--|-----------------------
B---15---------|--8/15---------20--20--20--20--|-----------------------
G---------------|-------------------------------|-----------5-----------
D---------------|-------------------------------|-----3-----------3-----
A---------------|-------------------------------|--------3--------------
E---------------|-------------------------------|--1-----------1--------

E---------|-----------------------10--|--------------------------|------
B---------|-----------------8---------|--------------------------|------
G------5--|-----------5--------7------|-----------9-----------9--|------
D---------|-----3--------5------------|-----7-----------7--------|------
A---3-----|--------3------------------|--------7-----------7-----|------
E---------|--1------------------------|--5-----------5-----------|------

mute --------
E-----------------------------14--||------------------------------------
B---------------------13----------||------------------------------------
G-------------11----------11------||*--------------16-------------------
D------10---------10--------------||*------14--------------14-----------
A----------9----------------------||-----------14--------------14-------
E---8-----------------------------||---12--------------12---------------

mute -------
E-------|------------------------------21---||---22-----------------
B-------|----------------------19-----------||-------20--22---------
G---16--|--------------16----------18------*||*--------------19-----
D-------|------14----------16--------------*||*---------------------
A-------|----------14-----------------------||----------------------
E-------|--12-------------------------------||----------------------

E---22--------------|--22-------------------------------||----------
B-------20--22------|------20--22------22------22-------||----------
G---------------19--|--------------19------19------19--*||*--20-----
D-------------------|----------------------------------*||*---------
A-------------------|-----------------------------------||----------
E-------------------|-----------------------------------||----------

E-------21--------------21------|----------21------21------21-----------
B---21------21------21------21--|------21------21------21------21-------
G---------------20--------------|--20-----------------------------------
D-------------------------------|---------------------------------------
A-------------------------------|---------------------------------------
E-------------------------------|---------------------------------------

////
E----||--21--------------------||---------------------------------------
B----||--21--------------------||---------------------------------------
G---*||--20--------------------||---------------------------------------
D---*||------------------------||---------------------------------------
A----||------------------------||---------------------------------------
E----||------------------------||---------------------------------------

========================================================================
== TABLATURE EXPLANATION ==
========================================================================

---------- ---------- ----t---
----5h8--- Hammeron ----(Cool--- Ghost ----6--- Tap
---------- ---------- Note --------
----5p8--- Pulloff ---------- --------

---------- ---------- -----p--
----5/8--- Slide Up -----x---- Dead -----7-- Pop
---------- ---------- Note --s-----
----58--- Slide Down ---------- --5----- Slap

---------- ||------|| Repeat --------
----5~~~-- Vibrato ||*----*|| ---5^--- Bend
---------- ||*----*|| --------
---------- ||------|| --------

---------- ---------- --------
-4:------- Time ---------- --------
-4:------- Signature ---------- --------
---------- ---------- --------

Rhythm:
w = whole note W = dotted whole
h = half note H = dotted half
q = quarter note Q = dotted quarter
e = eighth note E = dotted eighth
s = sixteenth note S = dotted sixteenth
t = 32nd note T = dotted 32nd
x = 64th note X = dotted 64th
^ = triplet
Bangkok
Steve Vai


Steve Vai - Bangkok

#----------------------------------PLEASE NOTE--------------------------------#
#This file is the author's own work and represents their interpretation of the#
#song. You may only use this file for private study, scholarship, or research.#
#-----------------------------------------------------------------------------#

From: Christian Walder
Subject: v/vai_steve/bangkok.tab
Date: Fri, 26 Jun 1998 16:40:29 +1000

"Bangkok" by Steve Vai

(final cadenza section only)

Transcribed by Christian Walder.

Hammer/pull ^
Don't pick ( )
Vibrato ~~~~
Downstroke D
Upstroke U

Loosely.

B 1/2 ~~~~ *
e--------18-------(1Cool^16------------(13)-^7^9^11^13--^7^9^11^13-------
b--------------------------19-16---------------------------------------
g--/16-----------------------------------------------------------------
d----------------------------------------------------------------------
a----------------------------------------------------------------------
d----------------------------------------------------------------------
*-(silent r.h. tap) ~~~~~~
e-(13)^7^9^11^13-(13)^11^9^7--------139-8^7---/11-11-11---------------
b----------------------------12-12-------------------------------------
g----------------------------------------------------------------------
d----------------------------------------------------------------------
a----------------------------------------------------------------------
d----------------------------------------------------------------------

(sweep picking)

~~~~~D D D B 1/2 U D D D U U D D D U ~~~~~
e----------------13-------(13)----------13-18^13----------13-----------
b--/16--------16---------------16----16----------16----16----16--------
g----------16---------------------16----------------16-----------------
d----------------------------------------------------------------------
a----------------------------------------------------------------------
d----------------------------------------------------------------------
[repeat...........]x5
D D D U D D D U U
e-------13-----------13-18^13------------13-18^13^18^13----------------
b----16----16-----16----------16------16-------------------------------
g-16-----------16------------------16----------------------------------
d----------------------------------------------------------------------
a----------------------------------------------------------------------
d----------------------------------------------------------------------

e-------13-19^13^19^13-------13-18^13^18^13-------13-19^13^19^13-------
a----16-------------------16-------------------16----------------------
g-16-------------------16-------------------16-------------------------
d----------------------------------------------------------------------
a----------------------------------------------------------------------
d----------------------------------------------------------------------

e-------18-21^18------
b----20----------20---
g-18------------------ Diminished pattern
d---------------------
a---------------------
d---------------------

The diminished pattern is repeated one fret down on the sixth repeat.
It continues chromatically down in this way until the highest note
reaches 13th fret, high E string. This tope note then spells out
these frets really quickly:-

14,13,14,13,14,15,16,17,18.

Then,
F Phrygian-dominant
e---14^18^14-13^18^14--------------------------------------------------
b---------------------14^18^14-13^14^13--------------------------------
g---------------------------------------15^17^15-14^15^14--------------
d----------------------------------------------------------------------
a----------------------------------------------------------------------
d----------------------------------------------------------------------

This part is hard suss out...
F# Major
e----------------------------------------------------------------------
b----------------------------------------------------------------------
g----------------------------------------------------------------------
d--16-15-14------------------------------------------------------------
a-----------15-13-12-15-13-12-------------------13-14-16-13-14-16------
d----------------------------14-13-12-13-14-16-------------------------

e-----------------------------------------------
b-----------------------------------------------
g----------------------------------------------- Etc.
d-----------13-15-16-16-15-13-------------------
a--13-14-16-------------------16-14-13-13-14-16-
d-----------------------------------------------
Başa dön
Kullanıcı profilini gör Özel mesaj gönder E-mail'i gönder Yahoo Messenger MSN Messenger
Sponsor Linkler







Tarih: Google ve Sponsor Baglantilari    Mesaj konusu: Sizde bu bölüme reklam verebilirsiniz !
: #   


Başa dön
Novembre
Geçerken Uğrayan
Geçerken Uğrayan


Kayıt: Oct 09, 2004
Mesajlar: 5


MesajTarih: Pts Arl 06, 2004 8:19 pm    Mesaj konusu: STEVE VAİ-PART 2 Alıntıyla Cevap Ver
Mesaj: #2   

BROTHER-CRYING MACHINE-THE DUEL-EROTİC NİGTHMARES-FOR LOVE THE GODS-GENOCİDE-I WOULBrother
Steve Vai <notaliste.php?gm=Steve Vai>
Steve Vai - Brother

#----------------------------------PLEASE NOTE---------------------------------#
#This file is the author's own work and represents their interpretation of the #
#song. You may only use this file for private study, scholarship, or research. #
#------------------------------------------------------------------------------##
#

#----------------------------------PLEASE NOTE---------------------------------#
#This file is the author's own work and represents their interpretation of the #
#song. You may only use this file for private study, scholarship, or research. #
#------------------------------------------------------------------------------#

Date: Mon, 2 Dec 1996 20:55:48 +0800
From: Cyber-Shredder
Subject: Brother tab(Steve Vai)

This is how I play the intro to steve vai's peice, brother, from FIRE GARDEN

e-----------------------------------------------------------------14--13----
-----
b--7--6---------------------------------------------------------------------
-----
g--------6-----------6------------------------------------------------------
-----
d-----------6v----6-----6/9v---8--4-4p3-4/6---------------------------------
-----
a---------------------------------------------------------------------------
-----
e----------------------------------------------------sr12/------------------
-----

e---------------------------------------------------------------------------
-----
b--14-------------14--------------------------------------------------------
-----
g------13v----13----1316--15----11--11p10--11/13---------------------------
-----
d---------------------------------------------------------------------------
-----
a---------------------------------------------------------------------------
-----
e---------------------------------------------------------------------------
-----

notation: /-slide
p-pulloff
v-vibratto
sr-scratch the string with your pick

wow! This is the first time I wrote tab, So That's it for now. I'll try to
finish
it, but I've got to go to bed now. Does anyone have tabs of Yngwie's stuff from
The seventh Sign and Magnum Opus? I'd sure like those.
David "Shredgod" Arevalo
[email protected] orThe Crying Machine
Steve Vai <notaliste.php?gm=Steve Vai>
Steve Vai - The Crying Machine

#----------------------------------PLEASE NOTE--------------------------------#
#This file is the author's own work and represents their interpretation of the#
#song. You may only use this file for private study, scholarship, or research.#
#-----------------------------------------------------------------------------#

From: "Leszek Zulikowski"
Subject: v/vai_steve/the_crying_machine.tab
Date: Tue, 03 Mar 1998 12:36:46 PST

STEVE VAI
The Crying Machine

from : Wojciech KOKALSKI (POLAND,GDAÑSK)

~ - vibrate
b - bend
h - hammer on
p - pull off
/ - slade
- slade

~~~~
E----12---12---12---12---12---12---12---12---12------------------------
B----12---12---12---12---12---12---12---12---12------------------------
G----14b--14b--14b--14b--14b--14b--14b--14b--14b----------------------
D----------------------------------------------------------------------
A----------------------------------------------------------------------
E----------------------------------------------------------------------

~~~~
E----------------------------------------------------------------------
B---10b--10b--10--8-10--10b--10--------10-10-10-8-7-7h8-7-------------
G----------------------------------------------------------9----------
D----------------------------------------------------------------------
A----------------------------------------------------------------------
E----------------------------------------------------------------------

~~~~
E----------------------------------------------------------------------
B---10b--10b--10--8-10--10b--10--------10-10-10-12-13-12-1216-16----
G----------------------------------------------------------------------
D----------------------------------------------------------------------
A----------------------------------------------------------------------
E----------------------------------------------------------------------

~~~~
E----------------------------------------------------------------------
B---10b--10b--10--8-10--10b--10--------10-10-10-7h8p7-----------------
G------------------------------------------------------9-911/79/4----
D----------------------------------------------------------------------
A----------------------------------------------------------------------
E----------------------------------------------------------------------

*
E----------------------------------------------------------------------
B---10b--10b--10--8-10--12--12b(12)--10----10-10-10-12-13-12-1216-----
G----------------------------------------------------------------------
D----------------------------------------------------------------------
A----------------------------------------------------------------------
E----------------------------------------------------------------------

* Pre-bend and relase: bend the note up Strike it and relase the bend
back to the original note.

~~~~ hp* ~~~~ ~~~~
E----------------------------------------------11---------------------
B---12--10--9-----12-(11 12)11-----------12-------14--11--9--11--7----
G------------------------------11-------------------------------------
D---------------------------------11----------------------------------
A---------------------------------------------------------------------
E---------------------------------------------------------------------

* Trill: very rapidly alternate between the notes indicated
by hammering on and pulling off.

~~~~
E---------------------------------------------------------------------
B------14--17--16----------17-21p19p17--19----------------------------
G-----------------16--------------------------------------------------
D--------------------16-----------------------------------------------
A---------------------------------------------------------------------
E---------------------------------------------------------------------

E---------------------------------------------------------------------
B---22b--22b--22b--22-20-22---22b--22-22--22-20-19h20-19--17----------
G---------------------------------------------------------------------
D---------------------------------------------------------------------
A---------------------------------------------------------------------
E---------------------------------------------------------------------

E----------------------------------------------------------------------
B---21--23--19--21--16-------------------------------------------------
G----------------------------------------------------------------------
D----------------------------------------------------------------------
A----------------------------------------------------------------------
E----------------------------------------------------------------------

~~~~
E---------------------19-20p19-------------19-20-19--19/22-2224-24---
B---22b--22b--22-20-22---------22--22-22-22----------------------------
G----------------------------------------------------------------------
D----------------------------------------------------------------------
A----------------------------------------------------------------------
E----------------------------------------------------------------------

~~~~
E----------------------------------------------------------------------
B----------------------------------------------------------------------
G--------------0---------------------------------0-------2h3p2p0h2-----
D-----2------0---2-----2----0-----------2------0---2-------------------
A-----2--1h2-----------2-1h2------------2--1h2-------------------------
E---0----------------0---------3-------0--------------0----------------

E----------------------------------------------------------------------
B----------------------------------------------------------------------
G--------------0-------------------------------------------------------
D-----2------0---2-----2-----------------------------------------------
A-----2--1h2-----------2-----------------------------------------------
E---0----------------0---------3-2-3-1---------------------------------

E----------------------------------------------7----8----10------------
B---------------------------------------8------7----8----10------------
G--------------0--------------------7-9---9----9b---8b---12b-----------
D-----2------0---2----0h2---5h7---9------------------------------------
A-----2--1h2-----------------------------------------------------------
E---0------------------------------------------------------------------
The Duel
Steve Vai <notaliste.php?gm=Steve Vai>
Steve Vai - The Duel

#----------------------------------PLEASE NOTE---------------------------------#
#This file is the author's own work and represents their interpretation of the #
#song. You may only use this file for private study, scholarship, or research. #
#------------------------------------------------------------------------------##
#

#----------------------------------PLEASE NOTE---------------------------------#
#This file is the author's own work and represents their interpretation of the #
#song. You may only use this file for private study, scholarship, or research. #
#------------------------------------------------------------------------------#

Date: Sun, 01 Dec 1996 15:40:14 +0000
From: CYBERIA ealing 7
Subject: TAB: The Duel by Steve Vai

The Duel - Steve Vai
-------------------------------------------
Transcribed by Jeff Young
[Laboriously typed up by Mardi Gras(TNT)]

Notes: Okay, this is not my work, but I heard someone wanted it and I had it lying around the house so I thought I'd do someone a favour. I've taken this from the June '95 edition of "Guitar" magazine. This is the riff that Vai plays when he has a guitar duel with actor Ralph Macchio (The Karate Kid) in the film, "Crossroads".
Vai performs a series of arpeggios in a reprise of an etude by William Kanengiser (who apparently played all the classical parts in the movie). This study in arpeggios is comprised almost entirely of notes from the A harmonic minor scale (A B C D E F G#). The only nondiatonic series of notes would be found in measure 3, an arpeggio, which in this case functions as a secondary dominant to the Dm in measure 4.

E| 8 12^8 |
B| 10 10 |
G| 5 9 9 5 |
D| 7 7 |
A| 7 5 |
E| 5 6 8 |

E| 7 |
B| 9 9 |
G| 7 9 9 7 |
D| 6 9 9 6 |
A| 5 7 7 5 |
E| 7 |

E| 5 |
B| 5 8 8 5 |
G| 6 6 |
D| 5 ^ 7 7 5 |
A| 7 7 |
E| 5 ^ 9 9 |

E| 10 13^10 |
B| 10 10 |
G| 7 10 10 7 |
D| 7 7 |
A| 5 6 |
E| 5 10^8 |

E| |
B| 9 12 9 |
G| 10 10 7 |
D| 9 12 9 6 |
A| 8^11 8 |
E| 7 10 7 |

E| 5 8 12 8 / | / 16
B| 5 5 10 |
G| 5 5 |
D| 7 7 |
A| 7 7 |
E| 5 8 | O

What more can I say? This is just a truly cool riff. It might be a little tErotic Nightmares
Steve Vai <notaliste.php?gm=Steve Vai>
Steve Vai - Erotic Nightmares

#----------------------------------PLEASE NOTE---------------------------------#
#This file is the author's own work and represents their interpretation of the #
#song. You may only use this file for private study, scholarship, or research. #
#------------------------------------------------------------------------------#
#

From [email protected] Fri May 16 08:31:42 1997
Date: Thu, 08 May 1997 21:54:35 -0400
From: Samuel Doyal
To: [email protected]
Subject: Tab: Erotic Nightmares by Steve Vai

Tabbed by Doyal
[email protected] Mail me, I may have some more done soon.

Steve Vai
Erotic Nightmares
>From Passion and Warfare 1991

This is a really cool song.
Probably in A dorian (I have read that he likes that mode a lot) or
e aeolian natural minor

Intro riffing
A5 D5
e-------------------------------------------
B-------------------------------------------
G--2---------2----------2--------2---7---2--- repeat many times
D--2---------2----------2--------2---7---2---
A--0---------0----------0--------0---5---0---
E-----3-2-3----3-2-3-0----3*-2-3-------------
PM----| PM-----| harm
For The Love Of God
Steve Vai <notaliste.php?gm=Steve Vai>
Steve Vai - For The Love Of God

#----------------------------------PLEASE NOTE---------------------------------#
#This file is the author's own work and represents their interpretation of the #
#song. You may only use this file for private study, scholarship, or research. #
#------------------------------------------------------------------------------##
From: Bjoern Winkler

"For The Love Of God" as recorded by Steve Vai
Tab: as heard by Bj"orn Winkler

Send corrections, additions etc to: [email protected]
Send flames to: [email protected]
--------------------------------------------------------------------

Play this part
3 times, then play:

e:-------------------------------------------------------------------------|
B:--------------------------15b(17)rb(15)p12---------------15--------------|
G:---------14--14b(16)~~~~--------------------12--14b(16)~~~~~~rb(14)~~~~--|
D:-----12------------------------------------------------------------------|
A:/14----------------------------------------------------------------------|
E:-------------------------------------------------------------------------|

Bend it up here, then pause, then
|| re-bend it here:
/ /
e:---------------------------------------------------------------------------|
B:-15b(17)rb(15)p12----------------------------------------------------------|
G:-------------------12--12b(14)---14rb(12)--12~~~~--/12--11--9------/9~~~~--|
D:---------------------------------------------------------------12----------|
A:---------------------------------------------------------------------------|
E:---------------------------------------------------------------------------|Genocide
Steve Vai <notaliste.php?gm=Steve Vai>
STEVE VAI - GENOCIDE

#----------------------------------PLEASE NOTE---------------------------------#
#This file is the author's own work and represents their interpretation of the #
#song. You may only use this file for private study, scholarship, or research. #
#------------------------------------------------------------------------------#
v/vai_steve/genocide.tab
From: [email protected] Sat Aug 5 12:55 2000
Figurer: Moquaj Gremlin
To: [email protected]
Tabulature: Genocide Solo by Steve Vai

STEVE VAI - GENOCIDE (Solo)

Tabulature Explanation:
b--> bend
r--> realise bend
h--> hammer
p--> pull off
/--> slide up
--> slide down
~--> vibration

Steve:...you like to hear it? Well, here it goes:

E ||----------------------------------|----------------------------------|
B ||-17b19--17b19--17-19-17-19-17-19~-|-/19-19-17p16-17-16b17---19-17----|
G ||----------------------------------|-------------------------------16-|
D ||----------------------------------|----------------------------------|
A ||----------------------------------|----------------------------------|
E ||----------------------------------|----------------------------------|

E ||----------------------------------|----------------------------------|
B ||----------------------------------|----------------------------------|
G ||-19~~-16b18r16--------------------|----------------------------------|
D ||----------------19-16-19~~--19-16-|----------------------------------|
A ||----------------------------------|-19-14-12h14-12b14-12-14b16r14-12-|
E ||----------------------------------|----------------------------------|

E ||----------------------------------|----------------------------------|
B ||-------------15b17---15b17r15-12--|----------------------------------|
G ||----------------------------------|-14-14b16-14b16r14----------14----|
D ||----------------------------------|-------------------16-14-16----16-|
A ||----------------------------------|----------------------------------|
E ||-14~~~~---------------------------|----------------------------------|

E ||-----------------------19-----19--|-19-19-------J-A-M-M-I-N'---------|
B ||------------------/19-19-19-19-19-|---19--------J-A-M-M-I-N'---------|
G ||-14b16r14-------------------------|----------------------------------|
D ||----------16-16-------------------|----------------------------------|
A ||----------------------------------|----------------------------------|
E ||----------------------------------|----------------------------------|

E ||----------------------------------|----------------------------------|
B ||-19-17----17-19----17b19~-r17-----|----------------------------------|
G ||-------18-------17------------18--|-17h18p17h18p17-18b20r18-17h18p17-|
D ||----------------------------------|----------------------------------|
A ||----------------------------------|----------------------------------|
E ||----------------------------------|----------------------------------|

E ||----------------------------------|----------------------------------|
B ||-18-17-14~~~----------------------|----------------------------------|
G ||----------------------------------|----------------------------------|
D ||----------------------------------|----------------------------------|
A ||----------------------------------|----------------------------------|
E ||----------------------------------|----------------------------------|

I hope I figured it out quite right.
Thank you for understanding. Remember. Life is good.
2000 by: Moquaj (mail to: [email protected] )


play with it, it's a general sketch

Chording, then the lead guitar starts (br=bend + release)

G5 D5 descending tapping thingie (just guessing)
e----------15b--15b-------------t12p8-t10p8-t10p8p7p5-t8p7p5h3------
B--3--3----------------12b-12b--------------------------------------
G--0--2-------------------------------------------------------------
D--0--0-------------------------------------------------------------
A-------------------------------------------------------------------
E--3----------------------------------------------------------------

It's a rought guide, so play with it till it sounds good



[email protected]
D LOVE TO..
Başa dön
Kullanıcı profilini gör Özel mesaj gönder E-mail'i gönder Yahoo Messenger MSN Messenger
Mesajları göster:   
Yeni Başlık Gönder   Cevap Gönder    metaltr.net Forum Ana Sayfası -> Gitar / Tab Tüm saatler GMT +1 Saat
1. sayfa (Toplam 1 sayfa)


 
Forum Seçin:  
Bu forumda yeni konular açamazsınız
Bu forumdaki mesajlara cevap veremezsiniz
Bu forumdaki mesajlarınızı değiştiremezsiniz
Bu forumdaki mesajlarınızı silemezsiniz
Bu forumdaki anketlerde oy kullanamazsınız


Powered by phpBB © 2001, 2002 phpBB Group
Türkçe Çeviri : Onur Turgay & Erdem Çorapçıoğlu
phpBB template by Spectre :: Ported for PHP-Nuke by nukemods.com
Forums ©
MetalTR.NET'de yayınlanan tercümeler, biyografiler, köşe yazıları, resimler ve sair materyaller izinsiz ve kaynak gösterilmeksizin kullanılamaz.
Copyright © 2004-2012 MetalTR.NET
| Yasal Uyarı



Sitemap - forumtags -
Web site engine code is Copyright © 2003 by PHP-Nuke. All Rights Reserved. PHP-Nuke is Free Software released under the GNU/GPL license.
Sayfa Üretimi: 0.18 Saniye
Untitled Document