Metal TR.NET - Yerli Gruplarina Sahip CIK !  
  Giriş veya Kayıt Ol
::  Ana Sayfa  ::  Hesabınız  ::  Forumlar  ::  Haberler  ::  Kritik  ::  Fotoğraf Galerisi  ::  Hosting  ::  Köşe Yazıları  ::
Menü
 Site
tree-T.gif Ana Sayfa
 Forum
 Haber Gönder
 Haber Arşivi
 Site Kadrosu
 Extra
 Hosting
 En İyi 10
 İnteraktif
 Demo & Mp3 Arşivi
 Video İzleme
 Fotoğraf Galerisi
 Destek
 Destekleyenler
 Linkekle
 Bizi Öner!
 
İçerik
. Yerli Gruplar
. Yabancı Gruplar
. Biyografiler
. Albümler
. Albüm Kritikleri
. Röportajlar
. Köşe Yazıları
. Köşe Yazıları Arşiv
. Dergiler
. Etkinlikler
· Gitar & TAB
 
Albüm Kritikleri
· KORN - The path of totality
· Hypocrisy-A Taste of Extreme Divinity (2009)
· Cyntia - Endless World (2012)
· Tiamat - The Scarred People
· Moonspell Alpha Noir-Omega White.
· Ghost - Opus Eponymous
· Testament - Dark Roots of Earth
· Lamb of God - Resolution
· Volbeat Live From Beyond Hell/Above Heaven
· Pentagram - MMXII
 
Kısa Haberler

[ Haber Arşivi ]
 
Son 10 Haber
· Dark Tranquillity Türkiye Turnesi 2021
[ 0 yorum - 1843 okuma ]
· SECURIS yeni Albümünü yayınladı.
[ 0 yorum - 4413 okuma ]
· OPETH 22 Mart 2015′te İstanbul'da, 23 Mart'ta ise Ankara'da
[ 0 yorum - 12524 okuma ]
· Blind Guardian Istanbul konseri 14 Mayıs 2015
[ 0 yorum - 12901 okuma ]
· Blind Guardian 8 yıl aradan sonra yeniden Ankara’da
[ 0 yorum - 12254 okuma ]
· DYING FETUS 11 HAZİRAN 2015 İstanbul'da
[ 0 yorum - 13787 okuma ]
· Kurt Cobain belgeselinden ilk fragman geldi
[ 0 yorum - 13714 okuma ]
· Takıntı - Buhran klibi yayınlandı!
[ 0 yorum - 14757 okuma ]
· Wayne Static 48 yaşında hayatını kaybetti
[ 0 yorum - 15207 okuma ]
· Niklas Kvarforth video röportajı
[ 0 yorum - 14327 okuma ]

[ Devamı Haberler Bölümünde ]
 
Fotoğraf Galerisi

B Noktası



B Noktası



B Noktası



Heretic Soul @ Waldb ...



Heretic Soul



Heretic Soul



Heretic Soul @ Rock ...



Anoreksi Promo 2011



Anoreksi Promo 2011



Anoreksi Promo 2011


[ Fotoğraf Galerisi ]
 
Rastgele Biyografi


Aegnor
 
MetalTR Arama
 
Üyelik
 
Üye Olun
Kayıp Şifre

Güvenlik Kodu: Güvenlik Kodu
Güvenlik Kodunu Girin:
 
Üyelik:
Bugün: 0
Dün: 0
Bekleyen Üyelik(ler): 55
Toplam Üye: 42,745
En Son Üye: Mantikdisi

Şu An Bağlı:
Misafir(ler): 118
Üye(ler): 0
Toplam: 118
 
Forumlardan
Last 10 Forum Messages

Şu anda ne dinliyorsunuz?
Son mesaj atan; _MeT_

forumu özlemişim lan
Son mesaj atan; Nymphetamine_e

Dark Tranquillity Türkiye Turnesi 2021
Son mesaj atan; blastrula

Düşünce İle Permiyen Dönemine Zaman Kapısı Açma
Son mesaj atan; kill_the_king

Reenkarnasyon Metafiziği
Son mesaj atan; _MeT_

13 yil sonra
Son mesaj atan; _MeT_

'Mastürbasyon Köyü'ndenim'
Son mesaj atan; ImpLosioN

Taşı Altına Dönüştürme
Son mesaj atan; elvistuna

Düşünce Nedir
Son mesaj atan; elvistuna

Şeytanlar Kongresi
Son mesaj atan; elvistuna


[ Metal TR.NET - Yerli Gruplarina Sahip CIK ! ]
 
Köşe Yazıları
 
metaltr.net :: Başlığı Görüntüle - Opeth
 
 SSSSSS   AramaArama   Üye ListesiÜye Listesi   Kullanıcı GruplarıKullanıcı Grupları Üye ListesiCan Sıkıntısı Giderici!   
 ProfilProfil   Özel mesajlarınızı kontrol etmek için login olunÖzel mesajlarınızı kontrol etmek için login olun     GirişGiriş 
GünlüklerGünlükler    Günlük Kontrol PaneliGünlük Kontrol Paneli    GünlüğümGünlüğüm

Opeth

 
Yeni Başlık Gönder   Cevap Gönder    metaltr.net Forum Ana Sayfası -> Gitar / Tab
Önceki başlık :: Sonraki başlık  
Yazar Mesaj
home_in_despair
Moderator


Kayıt: Nov 11, 2004
Mesajlar: 63
Nerden: Ýzmir

MesajTarih: Cum Ksm 26, 2004 8:36 am    Mesaj konusu: Opeth Alıntıyla Cevap Ver
Mesaj: #1   

OPETH Harvest
(BLACKWATER PARK)

I.repeat 4 times
Acoustic guitar
|--0-----0-----0-----0-----0-----0-----0-----0-------|
|--0-----0-0---0-----0-0---0-----0-0---0-----0-0-----|
|--0-----0-0-0-0-----0-0-0-0-----0-0-0-0-----0-0-0---|
|--2-------2-2-2-------2-2-5-------5-5-0-------2-2---|
|--2-----------2-----------2-----------2-------------|
|--0-----------0-----------0-----------0-------------|

II.repeat 4 times
Acoustic guitar
|--7-7-7-7-----5-5-5-5-----3---3-3-----2-2-2-2-----3-3-3-0-0-0-0-----0-
|--8-8-8-8-----5-5-5-5-----3---3-3-----3-3-3-3-----3-3-3-0-0-0-0-----0-
|--9---9-------7---7-------5-----5-----4---4-------3---3---0---0-----0-
|--9-----------7-----------5-----------4-----------5-----------2-------
|--7-----------5-----------3-----------2-----------5-----------2-------
|--------------------------------------------------3-----------0-------

----0-----0-----0-----0-------|
0---0-----0-0---0-----0-0-----|
0-0-0-----0-0-0-0-----0-0-0---|
2-2-5-------5-5-0-------2-2---|
----2-----------2-------------|
----0-----------0-------------|

Electric guitar
|--------------------------------------5-----------7-------10---------|
|--5--------------------------------------------------------*--5------|
|---------------------------------------------------------------------|
|---------------------------------------------------------------------|
|---------------------------------------------------------------------|
|---------------------------------------------------------------------|

*Play times 2 & 4
III.1st short transition
Acoustic guitar
|----------------|
|----------------|
|----------------|
|--7-----9-------|
|--7-----9-------|
|--5-----7-------|

Electric guitar
|----------------|
|--5-------------|
|----4-----------|
|--------5h7-5---|
|----------------|
|----------------|
IV.repeat 4 times
Acoustic guitar
|--0-----0-----0-----0-----0-----0-------------------|
|--0-----0-0---0-----0-0---0-----0-0-----------------|
|--0-----0-0-0-0-----0-0-0-0-----0-0-0---------------|
|--2-------0-0-2-------0-0-5-------0-0-7-----9-------|
|--2-----------2-----------2-----------7-----9-------|
|--0-----------0-----------0-----------5-----7-------|

Electric guitar
|----------------------------------------------------|
|----------------------------------------------------|
|----------------------------------------------------|
|--4---------let ring...-----------------------------|
|----------------------------------------------------|
|----------------------------------------------------|

V.starts to sing: "stay with me a while rise upon the vile be my final rest
poured into my chest"
|--3-----3-3-3-3-----3-3-3-3-----3-3---4-----4-4---3-----3-3-3-3-----3-
|--3-----3-3-3-3-----3-3-3-4-----4-4---4-----4-4---3-----3-3-3-3-----3-
|--5-------5---5-------5---5-------5---4-------4---3-------3---3-------
|--5-----------5-----------5-----------6-----------5-----------5-------
|--3-----------3-----------3-----------6-----------5-----------5-------
|--------------------------------------4-----------3-----------3-------

3-3-3-----3-3-3-3-----3-3-3---|
3-3-3-----3-3-3-3-----3-3-3---|
3---4-------4---4-------4-----|
----5-----------5-------------|
----5-----------5-------------|
----3-----------3-------------|

VI. Chorus "into the orchard I walk peering way paste the gate..." Acoustic
guitar
|--0-----0-----0-----0-----0-----0-----0-----0-----3-----3-----3-----3-
|--0-----0-0---0-----0-0---0-----0-0---0-----0-0---3-----3-3---3-----3-
|--0-----0-0-0-0-----0-0-0-0-----0-0-0-0-----0-0-0-3-----3-3-3-3-----3-
|--2-------2-2-2-------2-2-2-------2-2-2-------2-2-5-------5-5-5-------
|--2-----------2-----------2-----------2-----------5-----------5-------
|--0-----------0-----------0-----------0-----------3-----------3-------

----3-----3-----3-----3-------|
3---3-----3-3---3-----3-3-----|
3-3-3-----3-3-3-3-----3-3-3---|
5-5-5-------5-5-5-------5-5---|
----5-----------5-------------|
----3-----------3-------------|

Electric guitar
|-------0---let ring...-----------------------------------------------|
|------0-------------------------------------------0---let ring:------|
|-----0--------------------------------------------0------------------|
|----2----------------------------------------------------------------|
|---2-----------------------------------------------------------------|
|--0------------------------------------------------------------------|
^Volume goes up & down^
"...wilted scenes for us who couldn't wait..."
|--7-----7-----7-----7-----3-----3-----3-----3-----2-----2-----2-----2-
|--8-----8-8---8-----8-8---3-----3-3---3-----3-3---2-----2-2---2-----2-
|--9-----9-9-9-9-----9-9---4-----4-4-4-4-----4-4-4-2-----2-2-2-2-----2-
|--9-------9-9-9-------9---5-------5-5-5-------5-5-4-------4-4-4-------
|--7-----------7-----------5-----------5-----------4-----------4-------
|--------------------------3-----------3-----------2-----------2-------

----2-----2-----2-----2-------|
2---2-----2-2---2-----2-2-----|
2-2-3-----3-3-3-3-----3-3-3---|
4-4-4-------4-4-4-------4-4---|
----4-----------4-------------|
----2-----------2-------------|

"...drained by the coldest caress, stalking shadows ahead..."
Acoustic guitar
|--0-----0-----0-----0-----0-----0-----0-----0-----3-----3-----3-----3-
|--0-----0-0---0-----0-0---0-----0-0---0-----0-0---3-----3-3---3-----3-
|--0-----0-0-0-0-----0-0-0-0-----0-0-0-0-----0-0-0-3-----3-3-3-3-----3-
|--2-------2-2-2-------2-2-2-------2-2-2-------2-2-5-------5-5-5-------
|--2-----------2-----------2-----------2-----------5-----------5-------
|--0-----------0-----------0-----------0-----------3-----------3-------

----3-----3-----3-----3-------|
3---3-----3-3---3-----3-3-----|
3-3-3-----3-3-3-3-----3-3-3---|
5-5-5-------5-5-5-------5-5---|
----5-----------5-------------|
----3-----------3-------------|

Electric guitar
|-------0---let ring...-----------------------------------------------|
|------0-------------------------------------------0---let ring:------|
|-----0--------------------------------------------0------------------|
|----2----------------------------------------------------------------|
|---2-----------------------------------------------------------------|
|--0------------------------------------------------------------------|
^Volume goes up & down^


"...halo of death, all I see is departure - mourner's lament but it's me
who's the martyr"
|--7-----7-----7-----7-7---5-----5-----5-----5-5---5-----5-----5-----5-
|--8-----8-8---8-----8-8---5-----5-5---5-----5-5---5-----5-5---5-----5-
|--9-----9-9-9-9-----9-9---7-----7-7-7-7-----7-7---5-----5-5-5-5-----5-
|--9-------9-9-9-------9---7-------7-7-7-------7---7-------7-7-7-------
|--7-----------7-------7---5-----------5-------5---7-----------7-------
|--------------------------------------------------5-----------5-------


5---4-------------------------|
5---4-------------------------|
5---5-------------------------|
7---6-------------------------|
7---6-------------------------|
----4-------------------------|
VII.2nd transition:
|--------4-4-4-4-----4-4-4-3-----3-3-3-3-----3-3-3-3-----3-3-3-3-----3-
|--------4-4-4-4-----4-4-4-4-----4-4-4-4-----4-4-4-3-----3-3-3-3-----3-
|--5-------5---5-------5---5-------5---5-------5---4-------4---4-------
|--6-----------6-----------5-----------5-----------5-----------5-------
|--6-----------6-----------3-----------3-----------5-----------5-------
|--4-----------4-----------------------------------3-----------3-------

3-3---|
3-3---|
4-----|
------|
------|
------|

repeat IV
"pledge yourself to me never leave me be sweat breaks on my brow given time
ends now"

VIII. Guitar solo: rhythm acoustic guitar: repeat throughout the whole
solo...
|--1-----1-----1-----1-----0-----0-----0-----0-----4-----4-4---2-----2-
|--1-----1-1---1-----1-1---1-----1-1---1-----1-1---4-----4-4---3-----3-
|--1-----1-1-1-1-----1-1-1-2-----2-2-2-2-----2-2-2-4-----4-4---4-----4-
|--3-------3-3-3-------3-3-2-------2-2-2-------2-2-6-------6---4-------
|--3-----------3-----------0-----------0-----------6-------6---2-------
|--1-----------1-----------------------------------4-------------------

----3-----3-----3-----3------|
3---3-----3-3---3-----3-3----|
4-4-3-----3-3-3-3-----3-3-3--|
4-4-5-------5-5-5-------5-5--|
----5-----------5------------|
----3-----------3------------|

Lead Electric Guitar: 1.2.3.4.
|-------------------------------------------------------|El. Gtr I
|--3------5-6-5p3-------3-5---4-------------------------|
|-----------------5-----------------4-----3-------------|
|-----------------------------------------------5-------|
|-------------------------------------------------------|
|-------------------------------------------------------|

3.4.
|--1------3-5-3p1-------1-3-3/4-----2-----3-------------|El. Gtr II
|-----------------5-----------------------------3-------|
|-------------------------------------------------------|
|-------------------------------------------------------|
|-------------------------------------------------------|
|-------------------------------------------------------|







Electric guitar I
|----------9/10-12-13-10h12p10----10-12b-----------10h11-----10--------
|--3---------------------------13-------------------------------10-----
|------------------------------------------------------------------10--
|---------------------------------------------------------------------
|----------------------------------------------------------------------
|----------------------------------------------------------------------

-----------------|
---------11------|goes on...
------12----12---|
12---------------|
-----------------|
-----------------|




|----------------------------------------------------------------------
|----------------------------------------------------------------------
|--12\7-------------------------------7---9---10---8-------7/8---\7----
|-----------8-----7---5h7-----------7----------------------------------
|----------------------------------------------------------------------
|----------------------------------------------------------------------

-------------------------|
-------------------------|
-----8---7---8p7-5h7-----|
---7-----------------7---|
-------------------------|
-------------------------|

|----5---3h5---7h8p7--------------------------------------------------|
|--5-----------------10-----------------------------------------------|
|-----------------------9---------8-----7/8---8-7-5-------------------|
|---------------------------------------------------------------------|
|---------------------------------------------------0-----------/12---|
|-----------------------------------------------------3---6---3-------|

|----------------------------5/10-15p10\5-10b11-4-----6---7---6h7p6p4--
|----10---8/10-------------8-------------------------------------------
|--7------------------------------------------------------------------7
|----------------------------------------------------------------------
|----------------------------------------------------------------------
|----------------------------------------------------------------------

---|
---|
---|
---|
---|
---|





repeat IV & V again:
"spirit painted sin embers neath my skin veiled in pale embrace reached and
touched my face"


IX.3rd transition:
|--------------4-----4-----3-----3-3-3-3-----3-3-3-------x-----3---3--|
|------------4-4-----4-4---4-----4-4-4-4-----4-4-4-3---3-x-x---3---3--|
|--5-----5-5-5-5-----5-5-5-5-------5---5-------5---4---4-x-x-x-4---4--|
|--6-----6-6-6-6-------5-5-5-----------5-----------5---5---x-x-5---5--|
|--6-------6---6-----------3-----------3-----------5---5-------5---5--|
|--4-----------------------------------------------3---3-------3---3--|


repeat II

X. end with this Em:
|--0--|
|--0--|
|--0--|
|--2--|
|--2--|
|--0--|
Başa dön
Kullanıcı profilini gör Özel mesaj gönder Yahoo Messenger MSN Messenger
Sponsor Linkler







Tarih: Google ve Sponsor Baglantilari    Mesaj konusu: Sizde bu bölüme reklam verebilirsiniz !
: #   


Başa dön
home_in_despair
Moderator


Kayıt: Nov 11, 2004
Mesajlar: 63
Nerden: Ýzmir

MesajTarih: Cum Ksm 26, 2004 8:38 am    Mesaj konusu: Alıntıyla Cevap Ver
Mesaj: #2   

OPETH - TO BID YOU FAREWELL


normal tuning

please notice that:
- gtr 1 - left guitar
- gtr 2 - right guitar


I - repeat almost 8 times in crescendo

|-------------------|gtr 1
|-------------------|
|----------0--------|
|------4-----4---4--|
|----2---2-----2----|
|--0----------------|


II - repeat 4 times

|-------------------------------------------------------------------|gtr 1
|------------------------------------------0---------------0--------|
|----------0---------------0-----------0-----0---0-----0-----0---0--|
|------4-----4---4-----4-----4---4---4---4-----4-----4---4-----4----|
|----2---2-----2-----2---2-----2---5---------------5----------------|
|--0---------------0------------------------------------------------|
| |
|-------------------------------------------------------------------|gtr 2
|-------------------------------------------------------------------|
|-------------------------------------------------------------------|
|--5-----------------------------7-4--------------------------------|
|-------------------------------------------------------------------|
|-------------------------------------------------------------------|

|--0-------0-3-2---------------------------0-2---------------|
|----0-----------------------------------0-------------------|
|------0-----------------------------4-----------------------|
|--------2-----------------2h4p2---4---4---------------------|
|--------------------------------2---------------------------|
|------------------------------------------------------------|
| |
|--3p0-------------------------------------------------------|
|------0-----------------------------------------------------|
|--------0---------------------------------------------------|
|----------4p2-0-----------2h4p2-----------2/4---------------|
|--------------------------------2---------------------------|
|------------------------------------------------------------|


III - repeat 4 times

|--------------------------------3-------3\--2----------------------|
|--3-------3/5---------------------------------------0-2-3-5---2----|
|------4-------6----------------------------------------------------|
|----4---4-------------7---------5-------5\--4----------------------|
|--2----------------------------------------------------------------|
|-------------------------------------------------------------------|
| |
|------------------------------0-3p2-0---0h2-2----------------------|
|--3---------0-------------------------3----------------------------|
|--------------2----------------------------------------------------|
|-------------------------------------------------------------------|
|-------------------------------------------------------------------|
|-------------------------------------------------------------------|


IV - play 2 times

|--------------0-----------------------------------------------------|
|--3-------2---------------------------------------------------------|
|----------------------2/4-2---------------------------2-------------|
|--------------------------------------2-4-5-4-2-------2-------------|
|--------------------------------------------------------------------|
|--------------------------------2-3-2-------------------------------|
| |
|--2-----0-----------------------------------------------------------|
|----------3---2-------2/3-2-----------------------------------------|
|----------------------------------4---4-----------------------------|
|--------------------------------5---5---4-5-4-2---------------------|
|--------------------------------------------------------------------|
|--------------------------------------------------------------------|

|--------------0-----------------------------------------------------|
|--3-------2---------------------------------------------------------|
|----------------------2/4-2---------------------------2-------------|
|--------------------------------------2-4-5-4-2-------2-------------|
|--------------------------------------------------------------------|
|--------------------------------2-3-2-------------------------------|
| |
|--2-----0-----------------------------------------------------------|
|----------3---2-------2/3-5-----------------------------------------|
|----------------------------------4---4-----------------------------|
|--------------------------------5---5---4-5-4-2---------------------|
|--------------------------------------------------------------------|
|--------------------------------------------------------------------|


play III 4 times again


play IV 2 times with a slight variation at the beginning:


V - play 4 times

|-------------------------------------------------------|
|----------3--------------------------------------------|
|----------2--------------------------------------------|
|--0-------0--------------------------------------------|
|-------------------------------------------------------|
|-------------------------------------------------------|
| |
|-------------------------------------------------------|
|----------10-10-10-10-10---8-8\6-6---5-5---5-let ring--|
|----------10-10-10-10-10\9-9-9\7-7\5-5-5---5-----------|
|-------------------------------------------------------|
|-------------------------------------------------------|
|-------------------------------------------------------|


VI - starts to sing...

"i am awaiting the sunrise
gazing modestly to the coldest morning
once it came you lied
embracing us over autumn's proud treetops"

|------------------------------------1---------------1---------------|gtr 2
|----1-------------------------------3---------------3---------------|
|----3---------------3--------------2---------------2----------------|
|---3----------------5-------------0---------------0-----------------|
|-01----------------5------------------------------------------------|
|------------------3-------------------------------------------------|
| |
|--------------------------------------------------------------------|gtr 1*
|--------------------------------------------------------------------|
|----3-------------------------------7---------------7---------------|
|---3----------------5--------------7---------------7----------------|
|--1----------------5--------------5---------------5-----------------|
|------------------3-------------------------------------------------|

follow the same pattern for gtr 1 in the following acoustic part

play 2 times:
|----1---------------1-----------------------------------------------|gtr2
|----3---------------3---------------1-------------------------------|
|---2---------------2----------------3---------------3---------------|
|--0---------------0----------------3----------------5---------------|
|---------------------------------01----------------5----------------|
|--------------------------------------------------3-----------------|

...then:
|----1---------------1---------------|
|----3---------------3---------------|
|---2---------------2----------------|
|--0---------------0-----------------|
|------------------------------------|
|------------------------------------|


VIII - guitar solo

|------------------------------------------------------|solo gtr
|-------5---5b6r5-----3h5-------------------5h8-5------|
|-----7-------------------5-2-----------2/5------------|
|-5/7--------------------------------------------------|
|------------------------------------------------------|
|------------------------------------------------------|
| |
|-------------------1---------------------------1------|gtr 2
|-------------------3---------------------------3------|
|-----------------2---------------------------2--------|
|---------------0---------------------------0----------|
|------------------------------------------------------|
|------------------------------------------------------|

|----5-8-----------------------------------------------|
|---6----------8/10-8/10-----------8---6---5/6-5-------|
|--7---------------------------------------------------|
|------------------------------------------------------|
|------------------------------------------------------|
|------------------------------------------------------|
| |
|------------------1---------------------------1-------|
|------------------3---------------------------3-------|
|----------------2---------------------------2---------|
|--------------0---------------------------0-----------|
|------------------------------------------------------|
|------------------------------------------------------|

|-----------------------------10-10b---10-10b-10-10b-------|
|------6------8/10b--------10------------------------------|
|--5-7---7-10-----------12b--------------------------------|
|----------------------------------------------------------|
|----------------------------------------------------------|
|----------------------------------------------------------|
| |
|----------------------------------------------------------|
|------------------1---------------------------------------|
|------------------3-----------------3---------------------|
|----------------3-------------------5---------------------|
|------------0-1-------------------5-----------------------|
|--------------------------------3-------------------------|

|-13p10--------------13---15----------------------------------------------|
|-------10-----13-15---------13-----------10---13p10------------13--------|
|----------------------------------------------------12-----12b------12b--|
|-------------------------------------------------------------------------|
|-------------------------------------------------------------------------|
|-------------------------------------------------------------------------|
| |
|------------1--------------------------------------1---------------------|
|------------3--------------------------------------3---------------------|
|----------2--------------------------------------2-----------------------|
|--------0--------------------------------------0-------------------------|
|-------------------------------------------------------------------------|
|-------------------------------------------------------------------------|


VIII - play 2 times - mikael sings again

"i stand motionless
in a parade of falling rain
your voice i cannot hear
as i am falling again"

|---1---------------1----------------------------------------------|gtr 2
|---3---------------3--------------1-------------------------------|
|--2---------------2---------------3---------------3---------------|
|-0---------------0---------------3----------------5---------------|
|-------------------------------01----------------5----------------|
|------------------------------------------------3-----------------|


play V 4 times


IX

1.9.10.11.12.
|-----3-------------------------------------------------------------|gtr 1
|----5--------------------------------------------------------------|
|---4---------------------------------------------------------------|
|--5----------------------------------------------------------------|
|-------------------------------------------------------------------|
|-------------------------------------------------------------------|
2.3.4.
|-------------------------------------------------------------------|
|-------------------------------------------------------------------|
|-------------------------------------------------------------------|
|-------------------------------------------------------------------|
|-------------------------------------------------------------------|
|-------------------------------------------------------------------|
5.6.8.
|-------------------------------------------------------------------|
|----5--------------------------------------------------------------|
|---4---------------------------------------------------------------|
|--2----------------------------------------------------------------|
|-------------------------------------------------------------------|
|-------------------------------------------------------------------|
7.
|-------------------------------------------------------------------|
|-------------------------------------------------------------------|
|--------------0----------------------------------------------------|
|----------4--------------------------------------------------------|
|------2------------------------------------------------------------|
|--0----------------------------------------------------------------|
| |
|1.2.3.4.5.6.7.8.9.10.11.12. |
|-------------------------------------------------------------------|gtr 2
|-------------------------------------------------------------------|
|--------------7-7-7\5-5-5---4---2/4---4----------------------------|
|-------------------------------------------------------------------|
|--------------5-5-5\3-3-3---2---0h2---2----------------------------|
|-------------------------------------------------------------------|


X - play 6 times with some variations...

|--7-7-7-7-7-7-7-7-----7-7----------------------------------------|
|--7-7-7-7-7-7-7-7h8---8-8----------------------------------------|
|--7-7-7-7-7-7-7-7h9---9-9----------------------------------------|
|--7-7-7-7-7-7-7-7h9---9-9----------------------------------------|
|-----------------------------------------------------------------|
|-----------------------------------------------------------------|
| |
|------------------------------------------------7----------------|
|--------------------------------------------------8---8----------|
|----------------------------------------------------9-----9p7----|
|--------------------------------------------------------------9--|
|-----------------------------------------------------------------|
|-----------------------------------------------------------------|


XI - elctric gtrs enter

"devotion eludes
and in sadness i lumber
in my own ashes
i am standing without a soul"

1.2.3.4.5.6.7.8. 1.3.5.7. 2.4.6.
|-----------------------------------|-------------------|-------------------|gtr 1
|-----------------------------------|-------------------|-------------------|
|-----------------------------------|--2h4--------------|-------------------|
|--2-------2-2-4h5---5-----4h5------|--------4---0h2----|--0h2---0----------|
|--2--------------------------------|----------------2--|------------3p2-3--|
|--0-------------------0-0-----0-0--|-------------------|-------------------|
| . . . . . . | | |
| | | |
|-----------------------------------|-------------------|-------------------|gtr 2
|-----------------------------------|-------------------|-------------------|
|-----------------------------------|--2h4---2----------|-------------------|
|--2-------2-2-4h5---5-----4h5------|------------0h2-0--|--5-----4---2---2--|
|--2--------------------------------|-------------------|--7-----5---3---3--|
|--0-------------------0-0-----0-0--|-------------------|-------------------|
. . . . . .

8.
|-------------------------------------------------------------------------------|
|-------------------------------------------------------------------------------|
|----------------4--------------------------------------------------------------|
|--0h2---0---------------7-5-4h5p4h5p4-------4-------4h5-7---5-4-4-4-4---4-4-4--|
|------------3p2-------------------------------------------------2-2-2---2-2-2--|
|-------------------------------------------------------------------------------|
| |
|-------------------------------------------------------------------------------|
|-------------------------------------------------------------------------------|
|-------------------------------------------------------------------------------|
|--5-----4---2---2-------------------5-------4-------------------4-4-4---4-4-4--|
|--7-----5---3---3-------------------7-------5-------------------2-2-2---2-2-2--|
|-------------------------------------------------------------------------------|


XII -

|--------------------------------|--------------------------|----------------------------------|
|--------------------------------|--------------------------|----------------------------------|
|--------------------------------|--------------------------|----------------------------------|
|--4---5---5-5-5-----------------|------------------4-------|--0-2-4-5-4-2-4-2-----------------|
|------------------0-------------|--0h2-3/5-----------------|------------------4-------5-------|
|--------------------------------|--------------------------|------------------2-------3-------|
| | | |
|--------------------------------|--------------------------|----------------------------------|
|--------------------------------|--------------------------|----------------------------------|
|--------------------------------|--------------------------|----------------------------------|
|--0---2---2-2-2-----------------|------------------4-------|----------------------------------|
|------------------3-------------|--2h3-2---------0------0--|--2-3-5-3-2p0-2p0-4-------5-------|
|--------------------------------|--------5-------.------.--|------------------2-------3-------|

|----------------------------------------------------|
|----------------------------------------------------|
|-------------------------------0--------------------|
|--0-2-4-5-4-2-4-2-2--------------------0--let ring--|
|----------------------------------------------------|
|----------------------------------------------------|
| |
|----------------------------------------------------|
|----------------------------------------------------|
|----------------------------------------------------|
|------------------2------------5--------------------|
|--2-3-5-3-2p0-2p0-2--------------------5--let ring--|
|------------------0---------------------------------|


XIII - short acoustic interlude

|-------------------------------|
|------------------5------------|
|--2--------------5--------4-4--|
|----2-----3-----3--------------|
|-------------------------------|
|-------------------------------|


XIV - again electric gtrs - play 4 times

|---------------------------------------------------------------------|
|---------------------------------------------------------------------|
|----------------------------------4-----4-4---4h5-2--(2)4-2----------|
|--3-----5-5-------------2-2------------------------------------------|
|------------------3--------------------------------------------------|
|---------------------------------------------------------------------|
| |
|---------------------------------------------------------------------|
|---------------------------------------------------------------------|
|------------------------4-4-------7-----7-7\2-------------------*-*--|
|--0-----2-----5-------------------------------5/7-7\3-2---------2-3--|
|------------------3--------------------------------------------------|
|------------------3--------------------------------------------------|

* just the first 2 times


XV - then still acoustic...

1.2.3.4.
|----------------------------------------------------------------------|
|----------------------------------------------------------------------|
|------------------------4-4-----5/7---7-7-7\2-2/4-2p0-----------------|
|--0-----2-----5---------------------------------------2---------2-3---|
|------------------3---------------------------------------------------|
|----------------------------------------------------------------------|
|1.2.3.4. |1.2. |
|-------------------------------|--------------------------------------|
|-------------------------------|--------------------------------------|
|-------------------------------|--4---4-4-4---2h4-2---2h4p2-----------|
|--3-----5---5-5-5-------2-2----|--------------------------------------|
|------------------3------------|--------------------------------------|
|-------------------------------|--------------------------------------|
|3.4. |
|--7---7-7-7---7h8---------------------|
|------------------10------------------|
|--------------------------------------|
|--------------------------------------|
|--------------------------------------|
|--------------------------------------|


XVI - ...until the end - play 4 times

"we walked into the night
am i to bid you farewell?
why can't you see that i try
when every tear i shed
is for you?"

|---------------------------------------------------------|
|---------------------------------------------------------|
|--------0---------------0-2-4p2--------------------------|
|--0-----2-----2-----0h2---------5p4-4---5-2---0----------|
|--------2-----2---------------------------2-----3--------|
|--------0-----0---------------------------0-----5--------|
| |
|---------------------------------------------------------|
|------------------------------------------------5--------|
|--9-----0-----0---------------------------------4--------|
|------------------------5-7-5\4-----------2-----2--------|
|--7-----7-----7-----5/7---------5---7-----2--------------|
|--0-----------0-------------------7----------------------|

|---------------------------------------------------------|
|---------------------------------------------------------|
|--------0-------------0-2-4p2-0-2-2/5---4-----0-9--------|
|--0-----2-----2---0h2---------------------7--------------|
(0h5)----2-----2---------------------------------7--------|
|--------0-----0------------------------------------------|
| |
|---------------------------------------------------------|
|------------------------------------7-----------*--------|
|--9-----0-----0---------------------7-----------2--------|
|------------------------5-7-5\4-----5-----2-----2--------|
|--7-----7-----7-----5/7---------5---5-----2-----0--------|
|--0-----------0-------------------7----------------------|

* play this chord the last time:

|-----|
|--5--|
|--4--|
|--2--|
|-----|
|-----|

the end.
Başa dön
Kullanıcı profilini gör Özel mesaj gönder Yahoo Messenger MSN Messenger
Mesajları göster:   
Yeni Başlık Gönder   Cevap Gönder    metaltr.net Forum Ana Sayfası -> Gitar / Tab Tüm saatler GMT +1 Saat
1. sayfa (Toplam 1 sayfa)


 
Forum Seçin:  
Bu forumda yeni konular açamazsınız
Bu forumdaki mesajlara cevap veremezsiniz
Bu forumdaki mesajlarınızı değiştiremezsiniz
Bu forumdaki mesajlarınızı silemezsiniz
Bu forumdaki anketlerde oy kullanamazsınız


Powered by phpBB © 2001, 2002 phpBB Group
Türkçe Çeviri : Onur Turgay & Erdem Çorapçıoğlu
phpBB template by Spectre :: Ported for PHP-Nuke by nukemods.com
Forums ©
MetalTR.NET'de yayınlanan tercümeler, biyografiler, köşe yazıları, resimler ve sair materyaller izinsiz ve kaynak gösterilmeksizin kullanılamaz.
Copyright © 2004-2012 MetalTR.NET
| Yasal Uyarı



Sitemap - forumtags -
Web site engine code is Copyright © 2003 by PHP-Nuke. All Rights Reserved. PHP-Nuke is Free Software released under the GNU/GPL license.
Sayfa Üretimi: 0.20 Saniye
Untitled Document