Metal TR.NET - Yerli Gruplarina Sahip CIK !  
  Giriş veya Kayıt Ol
::  Ana Sayfa  ::  Hesabınız  ::  Forumlar  ::  Haberler  ::  Kritik  ::  Fotoğraf Galerisi  ::  Hosting  ::  Köşe Yazıları  ::
Menü
 Site
tree-T.gif Ana Sayfa
 Forum
 Haber Gönder
 Haber Arşivi
 Site Kadrosu
 Extra
 Hosting
 En İyi 10
 İnteraktif
 Demo & Mp3 Arşivi
 Video İzleme
 Fotoğraf Galerisi
 Destek
 Destekleyenler
 Linkekle
 Bizi Öner!
 
İçerik
. Yerli Gruplar
. Yabancı Gruplar
. Biyografiler
. Albümler
. Albüm Kritikleri
. Röportajlar
. Köşe Yazıları
. Köşe Yazıları Arşiv
. Dergiler
. Etkinlikler
· Gitar & TAB
 
Albüm Kritikleri
· KORN - The path of totality
· Hypocrisy-A Taste of Extreme Divinity (2009)
· Cyntia - Endless World (2012)
· Tiamat - The Scarred People
· Moonspell Alpha Noir-Omega White.
· Ghost - Opus Eponymous
· Testament - Dark Roots of Earth
· Lamb of God - Resolution
· Volbeat Live From Beyond Hell/Above Heaven
· Pentagram - MMXII
 
Kısa Haberler

[ Haber Arşivi ]
 
Son 10 Haber
· Dark Tranquillity Türkiye Turnesi 2021
[ 0 yorum - 1843 okuma ]
· SECURIS yeni Albümünü yayınladı.
[ 0 yorum - 4413 okuma ]
· OPETH 22 Mart 2015′te İstanbul'da, 23 Mart'ta ise Ankara'da
[ 0 yorum - 12523 okuma ]
· Blind Guardian Istanbul konseri 14 Mayıs 2015
[ 0 yorum - 12901 okuma ]
· Blind Guardian 8 yıl aradan sonra yeniden Ankara’da
[ 0 yorum - 12254 okuma ]
· DYING FETUS 11 HAZİRAN 2015 İstanbul'da
[ 0 yorum - 13787 okuma ]
· Kurt Cobain belgeselinden ilk fragman geldi
[ 0 yorum - 13714 okuma ]
· Takıntı - Buhran klibi yayınlandı!
[ 0 yorum - 14757 okuma ]
· Wayne Static 48 yaşında hayatını kaybetti
[ 0 yorum - 15207 okuma ]
· Niklas Kvarforth video röportajı
[ 0 yorum - 14327 okuma ]

[ Devamı Haberler Bölümünde ]
 
Fotoğraf Galerisi

B Noktası



B Noktası



B Noktası



Heretic Soul @ Waldb ...



Heretic Soul



Heretic Soul



Heretic Soul @ Rock ...



Anoreksi Promo 2011



Anoreksi Promo 2011



Anoreksi Promo 2011


[ Fotoğraf Galerisi ]
 
Rastgele Biyografi


FRIGHT OF CENTURY
 
MetalTR Arama
 
Üyelik
 
Üye Olun
Kayıp Şifre

Güvenlik Kodu: Güvenlik Kodu
Güvenlik Kodunu Girin:
 
Üyelik:
Bugün: 0
Dün: 0
Bekleyen Üyelik(ler): 55
Toplam Üye: 42,745
En Son Üye: Mantikdisi

Şu An Bağlı:
Misafir(ler): 129
Üye(ler): 0
Toplam: 129
 
Forumlardan
Last 10 Forum Messages

Şu anda ne dinliyorsunuz?
Son mesaj atan; _MeT_

forumu özlemişim lan
Son mesaj atan; Nymphetamine_e

Dark Tranquillity Türkiye Turnesi 2021
Son mesaj atan; blastrula

Düşünce İle Permiyen Dönemine Zaman Kapısı Açma
Son mesaj atan; kill_the_king

Reenkarnasyon Metafiziği
Son mesaj atan; _MeT_

13 yil sonra
Son mesaj atan; _MeT_

'Mastürbasyon Köyü'ndenim'
Son mesaj atan; ImpLosioN

Taşı Altına Dönüştürme
Son mesaj atan; elvistuna

Düşünce Nedir
Son mesaj atan; elvistuna

Şeytanlar Kongresi
Son mesaj atan; elvistuna


[ Metal TR.NET - Yerli Gruplarina Sahip CIK ! ]
 
Köşe Yazıları
 
metaltr.net :: Başlığı Görüntüle - MY DYING BRIDE
 
 SSSSSS   AramaArama   Üye ListesiÜye Listesi   Kullanıcı GruplarıKullanıcı Grupları Üye ListesiCan Sıkıntısı Giderici!   
 ProfilProfil   Özel mesajlarınızı kontrol etmek için login olunÖzel mesajlarınızı kontrol etmek için login olun     GirişGiriş 
GünlüklerGünlükler    Günlük Kontrol PaneliGünlük Kontrol Paneli    GünlüğümGünlüğüm

MY DYING BRIDE

 
Yeni Başlık Gönder   Cevap Gönder    metaltr.net Forum Ana Sayfası -> Gitar / Tab
Önceki başlık :: Sonraki başlık  
Yazar Mesaj
Novembre
Geçerken Uğrayan
Geçerken Uğrayan


Kayıt: Oct 09, 2004
Mesajlar: 5


MesajTarih: Sal Ksm 23, 2004 7:02 pm    Mesaj konusu: MY DYING BRIDE Alıntıyla Cevap Ver
Mesaj: #1   

A Black Voyage
TUNE DOWN 1.5 SEMITONES TO C#


INTRO GUITAR ONE
---------------------------------------------------------------------------
---------------------------------------------------------------------------
--------------------------------9---7---5---4--------9---7---5---4--------9
--4----------7---5---3---2--5-55--7---5---3---2--5-55--7---5---3---2--5-55-
------------------3-33-----------------3-33-----------------3-33-----------


---------------------------------------
---------------------------------------
---7---5---4--------9---7---5-
-7---5---3---2--5-55-
------3-33--


GUITAR TWO
---------------------------------------------------------------------------
---------------------------------------------------------------------------
------------------------------------------------------9-9^-----------------
----------7--------------------7-7--5757^3-5^2--595-7-7--5757^3-5^2--595-7-
---------------------------------------------------------------------------


---------------------------------------
---------------------------------------
9-9^-----------------------------
------------------------------


GUITAR ONE 3 TIMES
--------|--------------------------------------------------------|
--------|--------------------------------------------------------|
--------|O-----------------------------------------------------O-|
--9-----|O-------------------------------------------5---------O-|
--7-----|------7--5--7----8---7--------7--5--7----3-----3--2-----|
--------|---0-----------------------0----------------------------|
GUITAR TWO
--------|--------------------------------------------------------|
--------|--------------------------------------------------------|
--------|O-------------------------------------------7---------O-|
--9-----|O----------------------------------------5--5--5--4---O-|
--7-----|--2--------------------------------------3-----3--2-----|
--------|--0-----------------------------------------------------|


GUITAR ONE (TWO PLAYS MISC. FEEDBACK) 7 TIMES
-|-----------------------------------------------------|-----------
-|-----------------------------------------------------|-----------
-|O---------------------------------------------------O|-----------
-|O----------------------2H3P2-----------------2-3----O|---9-------
-|---2------------2--2-3-------3-2---3--3-3------------|---7-------
-|---O------------0------------------1--1-1-0----------|-----------

BOTH GUITARS 5 TIMES
-|----------------------------------------------------------|------
-|----------------------------------------------------------|------
-|O--------------------------------------------------------O|------
-|O-----9--4----5------------------9--4--7--2--4--5-----7--O|---9--
-|---2--7--2----3--5------------2--7--2--5--0--2--3--5--5---|---7--
-|---0-------------3---2ah------0--------------------3--5---|------

GUITAR ONE (GUITAR TWO PLAYS MISC. FEEDBACK AND NOISE) 13
TIMES
-|-----------------------------------------------------------------------|
-|-----------------------------------------------------------------------|
-|O---------------------------------------------------------------------0|
-|O----5-----5-5-5--8--7--5-----5-----5-----5-5-5--8--7--8--10---878----0|
-|---------------------------8-------------------------------------------|
-|-----------------------------------------------------------------------|

BOTH GUITARS 4 TIMES
-|-----------------------------------------------------------------------|
-|-----------------------------------------------------------------------|
-|O---------------------------------------------------------------------O|
-|O---------------------------------------------------------------------O|
-|-----5------------8--7--5--3--5-----5------------8--7--8--10---878-----|
-|-----3-----3-3-3--6--5--3--1--3-----3-----3-3-3--6--5--6--8----656-----|





-|---------------------------------------------------------------------|
-|---------------------------------------------------------------------|
-|---------------------------------------------------------------------|
-|---------------------------------------------------------------------|
-|-----5------------8--7--5--3--5------5------------8--7--8--------10--|
-|-----3-----3-3-3--6--5--3--1--3------3-----3-3-3--6--5--6--------8---|


GUITAR ONE (TWO PLAYS THE RIFF BELOW) 4 TIMES
-|----------------------------------------------------------|
-|----------------------------------------------------------|
-|O--------------------------------------------------------O|
-|O-----9--4----5------------------9--4--7--2--4--5-----7--O|
-|---2--7--2----3--5------------2--7--2--5--0--2--3--5--5---|
-|---0-------------3---2ah------0--------------------3--5---|


GUITAR TWO (THIS RIFF COMES ON THE SECOND TIME OF THE RIFF
ABOVE) 3 TIMES
-|-----------------------------------------------------------------------------------|
-|-----------------------------------------------------------------------------------|
-|O---------------------------------------------------------------------------------O|
-|O-------9-9-----------------------------------------9-9-------7-7H9P7--9-7--------O|
-|-----7-------9-9-----10-10------10-10--9H10P9--7-------9-9---------------9-10---12-|
-|-----------7-------8---------10-----------------------7----------------------10----|


ENDING

GUITAR ONE
-|---------
-|---------
-|---------
-|-9-------
-|-7-------
-|-0-------

GUITAR TWO
-|---------
-|---------
-|---------
-|----9-9--
-|-7-------
-|---------

Tabs supplied by Justin McFerrin
Başa dön
Kullanıcı profilini gör Özel mesaj gönder E-mail'i gönder Yahoo Messenger MSN Messenger
Sponsor Linkler







Tarih: Google ve Sponsor Baglantilari    Mesaj konusu: Sizde bu bölüme reklam verebilirsiniz !
: #   


Başa dön
Novembre
Geçerken Uğrayan
Geçerken Uğrayan


Kayıt: Oct 09, 2004
Mesajlar: 5


MesajTarih: Sal Ksm 23, 2004 7:04 pm    Mesaj konusu: Alıntıyla Cevap Ver
Mesaj: #2   

TURN LOOSE SWANS

---------------------------------------------------------------------------
/ The following is the author's own interpretation of the song, to be used -
/ for studying or private use only, removal of any part of this ten line -
/ header is illegal!!! Removal of the transcribers name or anything -
/ relevant to the transcriber is also illegal, as so is the removal of the -
/ place inwhich the tab was downloaded. Publishing as well as printing of -
/ the tab is illegal without permission of the transcriber and copyright -
/ owner of the song. Failure to apply to these laws result will in legal -
/ action from the appropriate parties. -
/---------------------------------------------------------------------------
downloaded from the Catacombs of Displacer's Death Tab Site at
http://www.dsrmusic.com/metaltab
join the death/black tab emailing list by filling out the free
subscription form at http://www.dsrmusic.com/metaltab/join.htm

Turn Loose the Swans

riff one
|-------------------|-------------------------|-------------------
|-------------------|-------------------------|-------------------
|-------------------|-------------------------|-------------------
|-------------------|-------------------------|------8p7-7h8-8p7--
|-------6p5-5h6-6p5-|-----2/3-3/5-5h6-6p5-5h6-|--6-6--------------
|--3-3--------------|-2-2---------------------|-------------------

first repeat second repeat
-----------------------------|
|
|----------------------------|-------------------|
|----------------------------|-------------------|
|----------------------------|-------------------|
|------5/7-7h8-8/10-10\8-8\7-|---5-5/7-8-7-7-8-7-|
|--5-5-----------------------|-------------------|
|----------------------------|-------------------|


riff two four times
|--------|-----------------|-------|-------------------|
|--------|-----------------|-------|-------------------|
|o-------|-----------------|-------|------------------o|
|o---6-6-|---6-6--5-5--8-7-|---6-6-|-5-6--4-----------o|
|--7-4-4-|-7-4-4--3-3--6-5-|-7-4-4-|-3-4--2-5--4-7-3---|
|--5-----|-5---------------|-5-----|--------3--2-5-1---|


|-------------------|-------------------------|-------------------
|-------------------|-------------------------|-------------------
|-------------------|-------------------------|-------------------
|-------------------|-------------------------|------8p7-7h8-8p7--
|-------6p5-5h6-6p5-|-----2/3-3/5-5h6-6p5-5h6-|--6-6--------------
|--3-3--------------|-2-2---------------------|-------------------

first repeat second repeat
-----------------------------|
|
|----------------------------|-------------------|
|----------------------------|-------------------|
|----------------------------|-------------------|
|------5/7-7h8-8/10-10\8-8\7-|---5-5/7-8-7-7-8-7-|
|--5-5-----------------------|-------------------|
|----------------------------|-------------------|

six times
|---------------|----------|-------------|--------------|
|---------------|----------|-------------|--------------|
|o--------------|----------|-------------|-------------o|
|o-7------5-8-7-|-6--7-6ah-|-3-3-4-3-1-3-|-5-3-2-5-3-2-o|
|--5--7-8-------|-4--------|-1-----------|-3------------|
|---------------|----------|-------------|--------------|
|--pm-----|

four times
|--------|--------|--------|--------------|------------------
|--------|--------|--------|-trill--------|-trill------------
|o-------|--------|--------|-45454-------o|-45454------------
|o-------|--------|--------|-------6-5-3-o|-------6-5-3------
|-2-2-3--|-2-2-4--|-2-2-3--|--------------|------------------
|-0-0-1--|-0-0-2--|-0-0-1--|--------------|------------------

thunder sound effects

four times
|--------|--------|--------|--------------|
|--------|--------|--------|-trill--------|
|o-------|--------|--------|-45454-------o|
|o-------|--------|--------|-------6-5-3-o|
|-2-2-3--|-2-2-4--|-2-2-3--|--------------|
|-0-0-1--|-0-0-2--|-0-0-1--|--------------|

two times
|--------------|-------------|-------------|--------------|
|--------------|-------------|-------------|-trill--------|
|o-------------|-------------|-------------|-45454-------o|
|o-------------|-------------|-------------|-------6-5-3-o|
|--2-2-3-------|-2-2-4-------|-2-2-3-------|--------------|
|--0-0-1-------|-0-0-2-------|-0-0-1-------|--------------|
| | | | |
|--------------|-------------|-------------|--------------|
|--------------|-------------|-------------|--------------|
|o-45454-------|-45454-------|-45454-------|-45454-------o|
|o-------6-5-3-|-------6-5-3-|-------6-5-3-|-------6-5-3-o|
|--------------|-------------|-------------|--------------|
|--------------|-------------|-------------|--------------|

four times
|--------|--------|--------|--------------|
|--------|--------|--------|-trill--------|
|o-------|--------|--------|-45454-------o|
|o-------|--------|--------|-------6-5-3-o|
|-2-2-3--|-2-2-4--|-2-2-3--|--------------|
|-0-0-1--|-0-0-2--|-0-0-1--|--------------|


|--------------|-------------|-------------|--------------|
|--------------|-------------|-------------|-trill--------|
|--------------|-------------|-------------|-45454--------|
|--------------|-------------|-------------|-------6-5-3--|
|--2-2-3-------|-2-2-4-------|-2-2-3-------|--------------|
|--0-0-1-------|-0-0-2-------|-0-0-1-------|--------------|
| | | | |
|--------------|-------------|-------------|--------------|
|--------------|-------------|-------------|--------------|
|--45454-------|-45454-------|-45454-------|-45454--------|
|--------6-5-3-|-------6-5-3-|-------6-5-3-|-------6-5-3--|
|--------------|-------------|-------------|--------------|
|--------------|-------------|-------------|--------------|


|--------------|-------------|-------------|--------------|
|--------------|-------------|-------------|-trill--------|
|--------------|-------------|-------------|-45454--------|
|--------------|-------------|-------------|-------6-5-2--|
|--2-2-3-------|-2-2-4-------|-2-2-3-------|--------------|
|--0-0-1-------|-0-0-2-------|-0-0-1-------|--------------|
| | | | |
|--------------|-------------|-------------|--------------|
|--------------|-------------|-------------|--------------|
|--45454-------|-45454-------|-45454-------|-45454--------|
|--------6-5-3-|-------6-5-3-|-------6-5-3-|-------6-5-2--|
|--------------|-------------|-------------|--------------|
|--------------|-------------|-------------|--------------|

seven times
|---------------------------------|--------------------------------|
|---------------------------------|--------------------------------|
|o--------------------------------|-------------------------------o|
|o-7-9--9-7-7--7-10-10--10-5-5-5--|-7-9--9-7-7--7-10-10--10-9-9-9-o|
|---------------------------------|--------------------------------|
|---------------------------------|--------------------------------|
| | |
|---------------------------------|--------------------------------|
|---------------------------------|--------------------------------|
|o--------------------------------|-------------------------------o|
|o--------------------------------|----------------------10-9-9-9-o|
|--7-9-10-9-9--9-7--7---7--5-5-5--|-7-9-10-9-9--9-7--7-------------|
|---------------------------------|--------------------------------|

four times
|--------|-----------------|-------|-------------------|
|--------|-----------------|-------|-------------------|
|o-------|-----------------|-------|------------------o|
|o---6-6-|---6-6--5-5--8-7-|---6-6-|-5-6--4-----------o|
|--7-4-4-|-7-4-4--3-3--6-5-|-7-4-4-|-3-4--2-5--4-7-3---|
|--5-----|-5---------------|-5-----|--------3--2-5-1---|


|-------------------|-------------------------|-------------------
|-------------------|-------------------------|-------------------
|-------------------|-------------------------|-------------------
|-------------------|-------------------------|------8p7-7h8-8p7--
|-------6p5-5h6-6p5-|-----2/3-3/5-5h6-6p5-5h6-|--6-6--------------
|--3-3--------------|-2-2---------------------|-------------------

first repeat second repeat
-----------------------------|
|
|----------------------------|-------------------|
|----------------------------|-------------------|
|----------------------------|-------------------|
|------5/7-7h8-8/10-10\8-8\7-|---5-5/7-8-7-7-8-7-|
|--5-5-----------------------|-------------------|
|----------------------------|-------------------|


|----------|--------|--------|--------------|----------
|----------|--------|--------|--------------|----------
|o---------|--------|--------|-------------o|----------
|o-5-57875-|-4-424--|-8-10-8-|-7-67-78-10--o|----------
|--3-------|-2------|-6------|-5------------|--5--5\---
|----------|--------|--------|--------------|--3--3\\x\
Başa dön
Kullanıcı profilini gör Özel mesaj gönder E-mail'i gönder Yahoo Messenger MSN Messenger
Novembre
Geçerken Uğrayan
Geçerken Uğrayan


Kayıt: Oct 09, 2004
Mesajlar: 5


MesajTarih: Sal Ksm 23, 2004 7:06 pm    Mesaj konusu: CRY OF MANKIND Alıntıyla Cevap Ver
Mesaj: #3   

Cry of Mankind (II)

=|----------------
=|-12-------------
=|----9-12-11-----
=|------------9-12 second-guitar-whole-song-riff
=|----------------
=|----------------

=|---------------
=|---------------
=|--------------- #1
=|-------0>2-----
=|-----2----3---2
=|-0-------------

=|--------------------------|--------------------------|
=|--------------------------|--------------------------|
=|--------------------------|--------------------------| #2
=|---9----10--10-12-10/10-9-|---9----10-9--------------|
=|-7---10-------------------|-7---10------9-10---------|
=|--------------------------|--------------------------|

=|-----------------------|--------------------------|
=|-----------------------|--------------------------|
=|-----------------------|--------------------------|
=|-----9---5-----9----12-|-----9---5-----4--2-------| #3
=|---7---3-----7---10----|---7---3---3-2------------|
=|-0---------0-----------|-0------------------3>2-0-|

=|------------------------|--------------------|
=|------------------------|--------------------|
=|------------------------|--------------------| #4
=|-------0>2--5-----4-----|---0>2--5-----7-9-9-|
=|-----2----3---3>2---2---|-2----3---3>5---7-7-|
=|-0--------------------0-|--------------------|

=|------------------------|------------|
=|------------------------|------------|
=|------------------------|------------| #5
=|-------0>2--5-----4-----|---0>2--5-7-|
=|-----2----3---3>2---2---|-2----3---5-|
=|-0--------------------0-|------------|

=|-----------------------------
=|-----------------------------
=|----------------------------- #6
=|---9-----------10----7-------
=|-7---10-9-7/7-----10---10-9-7
=|-----------------------------

=|-------------------
=|-------------------
=|------------------- #7
=|-9-----------10-12-
=|---10-9-7/7--------
=|-------------------

=|
=|
=|
=|
=|-7/7-7-9-10-10/10-12-10-9-10-12-10-9-10>(9)>7 #8
=|

=|
=|
=|
=|
=|-7-9-10-9-7/7-9-7-5-7-9-7-5-7 #9
=|




#1 (x2),#2 (x2),#3 (x2),#4 ,#5 ,#6 ,#7 ,#8 ,#9 ,#2 (x2),#3
(x2),#1(x2),#4 ,#5 ,#3 .

Supplied by Alec Zalogin ([email protected])
Başa dön
Kullanıcı profilini gör Özel mesaj gönder E-mail'i gönder Yahoo Messenger MSN Messenger
Novembre
Geçerken Uğrayan
Geçerken Uğrayan


Kayıt: Oct 09, 2004
Mesajlar: 5


MesajTarih: Sal Ksm 23, 2004 7:08 pm    Mesaj konusu: RIVER Alıntıyla Cevap Ver
Mesaj: #4   

My Dying Bride: About the Music




Your River
INTRO
C#--||---0h2--2--------3p2--0h2--2--------0h2--2--------3p2--0h2--2-----
G#--||---0----0--------0----0----0--------0----0--------0----0----0-----
E---||*-----------------------------------------------------------------
B---||*-----------------------------------------------------------------
F#--||------------------------------------------------------------------
C#--||------------------------------------------------------------------
CLEAN TONE WITH DELAY


C#--------7h9--9-----10p9--7h9--9--------7h9--9--------10p9--7\5--5-----
G#--------7----7-----7-----7----7--------7----7--------7-----7-5--5-----
E-----------------------------------------------------------------------
B-----------------------------------------------------------------------
F#----------------------------------------------------------------------
C#----------------------------------------------------------------------


2x
C#---||-----0h2--2-----------3p2-----0h2--2--|--------------------------
G#---||-----0----0-----------0-------0----0--|--------------------------
E---*||--------------------------------------|--------------------------
B---*||--------------------------------------|--------------------------
F#---||--------------------------------------|--------------------------
C#---||--------------------------------------|--------------------------





DISTORTED RIFF BY BOTH GUITARS
C#--||------------------------------------------------------------------
G#--||------------------------------------------------------------------
E---||*-----------------------------------------------------------------
B---||*--4--------5-----------------4--------5--7--------4--5-----------
F#--||---4--------5--2--2--2--------4--------5--7--------4--5--2--2-2---
C#--||---2--------3--0--0--0--------2--------3--5--------2--3--0--0-0---


GUITAR 1
C#--|-----------|--------------------------------------------------------
G#--|-----------|--------------------------------------------------------
E---|-----2--3--|--------------------------------------------------------
B---|--4--------|--------------------------------------------------------
F#--|--4--------|---2---2-------------------------------2---2-----------
C#--|--2--------|---------3--2--3--2--2-----2--3--5-----------3--2--3--2-




C#----------------------------------------------------------------------
G#----------------------------------------------------------------------
E-----------------------------------------------------------------------
B-----------------------------------------------------------------------
F#-------------2--0-----------------------------------------------------
C#---2-----2-----------3--5---------------------------------------------


GUITAR 2 * VIOLIN
C#--|-----------|------------------------------------------------------||
G#--|-----------|------------------------------------------------------||
E---|-----------|-----------------------------------------------------*||
B---|--4--2--3--|------------play same part than guit.1---------------*||
F#--|--4--------|------------------------------------------------------||
C#--|--2--------|------------------------------------------------------||


===============

VERSE 1 GUITAR 1
5x
C#--|--------|----------------------------------------------------------||
G#--|--------|----------------------------------------------------------||
E---|--------|*--------------------------------------------------------*||
B---|--5-----|*---6--5--------6--5--------6--5--------6--5-------------*||
F#--|--5-----|----------5--4--------4--3--------3--2--------------------||
C#--|--3-----|----------------------------------------------6--5--3-----||


GUITAR 2
C#--|-------|-|---------------------------------------------------------||
G#--|-------|-|---------------------------------------------------------||
E---|-------|-|*-Guitar 2 stars in the second time from the last three-*||
B---|--5----|-|*-------------------------------------------------------*||
F#--|--5----|-|--notes and then play the same than Guitar 1---4 times---||
C#--|--3----|-|---------------------------------------------------------||

===============

VERSE 2 GUITAR 1
C#--||------------------------|-----------------------|------------------
G#--||------------------------|-----------------------|------------------
E---||*-----------------------|-----------------------|------------------
B---||*-----------------------|-----------------------|------------------
F#--||---6-----------6-----6--|--5-----------5-----5--|--8-----------8---
C#--||---6--6--6--6--6--6--6--|--3--3--3--3--3--3--3--|--6--6--6--6--6---


4x
C#--------|----------------------------||
G#--------|----------------------------||
E---------|---------------------------*||
B---------|---------------------------*||
F#--------|--9-----------9-----9-------||
C#--6--6--|--7--7--7--7--7--7--7-------||

GUITAR 2 A.H A.H A.H
C#--|------------------------|----------------------|-------------------|
G#--|--------------8---------|----------------------|-------------------|
E---|------------------------|---------------8------|------------9------|
B---|------------------------|----------------------|-------------------|
F#--|--6---------------------|--5-------------------|--8----------------|
C#--|--6---------------------|--3-------------------|--6----------------|



A.H 4x
C#---------------------------||
G#---------------------------||
E---------------------9-----*||
B---------------------------*||
F#--9------------------------||
C#--7------------------------||


===============

GUITAR 1 4x 4x
C#--||--------------------------||---------------------|----------------|Bass part
G#--||--------------------------||---------------------|----------------|duiring
E---||*------------------------*||*-------------------*|----------------|4 times
B---||*-----8--9---------0-----*||*----8--9---------0-*|----------------|
F#--||---7--------9--10---------||--7--------9--10-----|--7/--::::::::--|
C#--||--------------------------||---------------------|----------------|

P.M-----------------------------------------------|


GUITAR 2
C#--|--------------------------|-----------------------|----------------|
G#--|--------------------------|-----------------------|----------------|
E---|--------------------------|-----------------------|----------------|
B---|---9--:::::::::::::::::::Neutral---2-------------------|--2-------------|
F#--|---9--:::::::::::::::::::Neutral---2-------------------|--2--:::::::::--|
C#--|---7--:::::::::::::::::::Neutral---0-------------------|--0-------------|
*Only the first time



THEN BOTH GUITARS 8x
C#--||-----------------------||
G#--||-----------------------||
E---||*---------------------*||
B---||*-----8--9---------0--*||
F#--||---7--------9--10------||
C#--||-----------------------||

P.M----------------------|



===============


GUITAR 1 5x
C#--||--------------------|------------------|---------------|-------------------||
G#--||--------------------|------------------|---------------|-------------------||
E---||*-------------------|------------------|---------------|-------------------||
B---||*--9----------------|---7--------------|---5-----------|----------------\9-||
F#--||---7----------------|---7--------------|---5-----------|-4-5-4-2--\7-\7----||
C#--||---0----------------|---5--------------|---3-----------|-2-3-2-0-----------||


*play this in times #1-#3-#5

C#--|----------------------||--------------------------|---------------------
G#--|--------------------- ||--------------------------|---------------------
E---|----------------------||--------------------------|---------------------
B---|---9----9--10--12---7\||-7--7-5/7-9---9-9\7-7\5-5-|--5h7p5---4h5--7-----
F#--|---7------------------||-7------------------------|---------------------
C#--|---0------------------||-5------------------------|---------------------


5x
C#---------------|--------------|| The lyrics stars in the
G#---------------|--------------|| second time
E----------------|-------------*||
B--4--4h5--4--2--|--9--10--12--*||
F#---------------|--------------||
C#---------------|--------------||





C#--||------------------------||* Replacemente of previous part
G#--||------------------------|| played in times #2-#4 only
E---||------------------------||
B---||--7--7--9--5--5h7--7p5--||
F#--||--7---------------------||
C#--||--5---------------------||



BOTH GUITARS
C#-----------------------||
G#-----------------------||
E------------------------||
B---4--------5-----------||
F#--4--------5--2--2--2--||
C#--2--------3--0--0--0--||


===============


GUITAR 1-VERSE 3
C#--||------------------------------------------------------------------
G#--||---------------6--5-----------------6--5-----------------6--------
E---||*--7--5--7--------------7--5--7--------------7--5--7--------------
B---||*-----------------------------------------------------------8---7-
F#--||------------------------------------------------------------------
C#--||------------------------------------------------------------------


2x
C#----------------------||
G#-----------------5----||
E--------------5--------||
B----------7------------||
F#----------------------||
C#----------------------||


GUITAR 2
C#--|--------------------------------------------------------------------
G#--|--------------------------------------------------------------------
E---|--------------------------------------------------------------------
B---|------7-----5--7--8-----8--7--------------10-----10--8--7-----------
F#--|-5--5--------------------------8-----8--7----------------------10---
C#--|--------------------------------------------------------------------


2x
C#---------------------------||
G#-----------------------5---||
E---------------------------*||
B------------7--5--7--8-----*||
F#--8--5---------------------||
C#---------------------------||


===============

GUITAR 1
C#--||--------------------------------------------------------||
G#--||--------------------------------------------------------||
E---||*-------------------------------------------------------||
B---||*--5-----------7-------------2-----0--2--3-----3--3--2--||
F#--||---5-----------7----------------------------------------||
C#--||---3-----3--3--5-----5/3--------------------------------||




GUITAR 2 7x
C#--|------------------------------------------------------||
G#--|------------------------------------------------------||
E---|-----------------------------------------------------*||
B---|-5-------------7-------------2-----------3-----------*||
F#--|-5-------------7-------------2-----------3------------||
C#--|-3-------3--3--5-----5/3-----0-----0--0--1--1--1--0---||



==========================
VERSE 3 - VERSE 2 (5 TIMES)
==========================

THEN

GUITAR 1
C#-|-------------|-----------------|--------------|-------------|
G#-|-------------|-----------------|--------------|-------------|
E--|-------------|-----------------|--------------|-------------|
B--|-------------|-----------------|--------------|-------------|
F#-|---6---------|--5--------------|--8-----------|--9----------|
C#-|---6---------|--3--------------|--6-----------|--7----------|



GUITAR 2 A.H A.H A.H
C#-------------|----------------|-----------------|------------|
G#-------8-----|----------------|-----------------|------------|
E--------------|-------------8--|--------------8--|---------9--|
B--------------|----------------|-----------------|------------|
F#--6----------|-----5----------|--8--------------|--9---------|
C#--6----------|-----3----------|--6--------------|--7---------|


OUTRO BOTH GUITARS
C#--|--------------------||
G#--|--------------------||
E---|--------------------||
B---|--4-----5-----------||
F#--|--4-----5--2--2--2--||
C#--|--2-----3--0--0--0--||




===============

* Violin arragement for guitar
C#--7--------7--10--9--10--12--9--------9--10--9-----9h10p9\7-----------
G#----------------------------------------------------------------------
E-----------------------------------------------------------------------
B-----------------------------------------------------------------------
F#----------------------------------------------------------------------
C#----------------------------------------------------------------------



C#--7--10--9--10--12--9-----------||
G#--------------------------7--8--||
E---------------------------------||
B---------------------------------||
F#--------------------------------||
C#--------------------------------||


* this arragement is played in the first distorted part


*TAB EXPLANATION*

SEPARATOR =============
REST :::::::::::::

Transcribed by Gerardo Ducros
Tabbed by G.Ducroz and L.Antozzi
Başa dön
Kullanıcı profilini gör Özel mesaj gönder E-mail'i gönder Yahoo Messenger MSN Messenger
Novembre
Geçerken Uğrayan
Geçerken Uğrayan


Kayıt: Oct 09, 2004
Mesajlar: 5


MesajTarih: Sal Ksm 23, 2004 7:09 pm    Mesaj konusu: APOCALYPSE WOMAN Alıntıyla Cevap Ver
Mesaj: #5   

Apocalypse Woman
riff A
|-----------1-------------------0-----|
|-----3---3---------------1---1-------|
|---2---2---------------2---2---------|
|-0-------------------0---------------|
|-------------------------------------|
|-------------------------------------|

riff B
|-------------------------------------------------------------
|-------------------------------------------------------------
|-------------------------------------------------------------
|------------7--------------------7-------------------7-------
|-7-7-7-7-7--5---------7-7-7-7-7--5--------7-7-7-7-7--5-------
|-------------------------------------------------------------
. . . . . . . . . . . . . . . palm mute
|----------------|
|----------------|
|----------------|
|-5--5--8--8-----|
|-3--3--6--6--7--|
|-------------5--|

riff C
|--------------------------------------|
|--------------------------------------|
|--------------------------------------|
|--9--9--7--7--7--7--5--5--8--8--10----|
|--7--7--5--5--5--5--3--3--6--6--8-----|
|--------------------------------------|

|--------------------------------------|
|--------------------------------------|
|--------------------------------------|
|--9--9--7--7--7--7--5--5--8--8--------|
|--7--7--5--5--5--5--3--3--6--6--7-----|
|--------------------------------5-----|

SOLO - 1st guitar:
|-----------------------------------------------------------------
|-----10-8-10-10^-10-8-10--------------------10-8-10-10^-10-8-10--
|-7------------------------7---8-----10---7-----------------------
|-----------------------------------------------------------------
|-----------------------------------------------------------------
|-----------------------------------------------------------------

|-------------10---8--10--8-------------------10---8--10--8-------
|----8--10-11---------------8h10----------------------------8h10--
|-7------------------------------7--8-----------------------------
|--------------------------------------10--8----------------------
|-----------------------------------------------------------------
|-----------------------------------------------------------------

|--8---10---11---10----------------|
|---------------------8~~~~~~~-----|
|----------------------------------|
|----------------------------------|
|----------------------------------|
|----------------------------------|

SOLO - 2nd guitar:
|--------------------------------------------------------|
|--------------------------------------------------------|
|--------------------------------------------------------|
|-7---7-7---8---10--1010--8---7---7-7---8---12---10--8---|
|-5---5-5---6---8---8-8---6---5---5-5---6---10---8---6---|
|-5-------------8-------------5--------------------------|

Notes : tune down 1,5 step (C sharp)

. Palm muting \ Slide down
^ Bend / Slide up
h Hammer on w\ Whammy bar
p Pull off ~ Vibrato
t Right hand tapping


Tabbed by Andrej ([email protected])
Başa dön
Kullanıcı profilini gör Özel mesaj gönder E-mail'i gönder Yahoo Messenger MSN Messenger
Novembre
Geçerken Uğrayan
Geçerken Uğrayan


Kayıt: Oct 09, 2004
Mesajlar: 5


MesajTarih: Sal Ksm 23, 2004 7:11 pm    Mesaj konusu: BLACK GOD Alıntıyla Cevap Ver
Mesaj: #6   

BLACK GOD

By 'My Dying Bride'
Taken from the album 'Turn Loose The Swans'
Transcribed by Roland de Graauw
Send questions, comment or corrections to [email protected]

Normal Tuning

I transposed the piano and violin for guitar (or bass), this
results in a lot of slides on the violin parts (listen to the song
to get 'em right).
There are also a LOT of repeats, which I didn't count, so I'll
just give the variations, which are played in the song.


Piano (starts after the low synth-FX)

var.1
e -----------------------|-------------------|
B -----------------------|-------------------|
G --------------10---9---|--7----12--10--9---|
D --7----9--10-----------|-------------------|
A -----------------------|-------------------|
E -----------------------|-------------------|

var.2
e -----------------------|-----------------------|
B -----------------------|-----------------------|
G --------------10---9---|--7----12--10--9---7---|
D --7----9--10-----------|-----------------------|
A -----------------------|-----------------------|
E -----------------------|-----------------------|


Violin (Use a lot of sustain to make the
slides sound best)
Note: Play along with the song to get the rythm right;
the violin-rythm is not the same as the piano-rythm
on certain parts, which can be confusing.
var.1
e --------------------------|----------------------------|
B --------------------------|----------------------------|
G --------------10---9s7s9--|--7----12--10--9--10--9--7--|
D --7----9--10--------------|----------------------------|
A --------------------------|----------------------------|
E --------------------------|----------------------------|

var.2
e ------------------------------|----------------------------|
B ------------------------------|----------------------------|
G --------------10---9s7s9s7s9--|--7----12--10--9--10--9--7--|
D --7----9--10------------------|----------------------------|
A ------------------------------|----------------------------|
E ------------------------------|----------------------------|

var.3
e --------------------------|------------------------------------|
B --------------------------|------------------------------------|
G --------------10---9s7s9--|--7----12--10--9--10--9--7--9-7-9-7-|
D --7----9--10--------------|------------------------------------|
A --------------------------|------------------------------------|
E --------------------------|------------------------------------|

var.4
e ------------------------|----------------------------|
B ------------------------|----------------------------|
G --------------10---9s7--|--7----12--10--9--10--9--7--|
D --7----9--10------------|----------------------------|
A ------------------------|----------------------------|
E ------------------------|----------------------------|

var.5
e -------------------------|-----------------------------------|
B -------------------------|-----------------------------------|
G --------------12--10--9--|--9--10--12--9--10--12--10-9-10-9--|
D --7----9--10-------------|-----------------------------------|
A -------------------------|-----------------------------------|
E -------------------------|-----------------------------------|

var.6
e ---------------------------|-----------------------------------|
B ---------------------------|-----------------------------------|
G --------------10--9s7s9s7--|--7---10s12--12--10-9-10--9--7-9-7-|
D --7----9--10---------------|-----------------------------------|
A ---------------------------|-----------------------------------|
E ---------------------------|-----------------------------------|

var.7
e -------------------------|-----------------------------------
B -------------------------|-----------------------------------
G --------------12--10--9--|--9--10--12--9--10--12--10--9--10--
D --7----9--10-------------|-----------------------------------
A -------------------------|-----------------------------------
E -------------------------|-----------------------------------

(continuation of var.7)
e -----------------------------|
B -----------------------------|
G --9--12s10--14s12--12s10--9--|
D -----------------------------|
A -----------------------------|
E -----------------------------|
Başa dön
Kullanıcı profilini gör Özel mesaj gönder E-mail'i gönder Yahoo Messenger MSN Messenger
Novembre
Geçerken Uğrayan
Geçerken Uğrayan


Kayıt: Oct 09, 2004
Mesajlar: 5


MesajTarih: Sal Ksm 23, 2004 7:16 pm    Mesaj konusu: IT WILL COME Alıntıyla Cevap Ver
Mesaj: #7   

It Will Come

Legend:
h- hammer /- slide up
p- pull off \-slide down
b- bend (pitch indicated w/ brackets)
pm- palm mute r- release
x- mute strings ~- vibrato

Tune down 1/2 step + dropped D C#G#C#F#A#D#

Note: The actual tuning used is down 1-1/2 steps
but I used dropped D down a half step because it
sounds alot better on my guitar and I don't have
to retune for alot of other songs.


INTRO


Bass------------------->| Guitar 1&2--->|
D#|-------------------------------------------|
A#|-------------------------------------------|
F#|---------------------------7-----5---------|
C#|------------------------------8-----7--5---|
G#|-------------------------------------------|
C#|--0-0-0-0-0-0-1-1-0-0-0-0------------------|

Riff A-------------------------------------->|
Pm----------------------| * 7x
D#[--------------------------------------------]
A#[--------------------------------------------]
F#[---------------------------7-----5----------]
C#[------------------------------8-----7--5----]
G#[--0-0-0-0-0-0-1-1-0-0-0-0-------------------]
C#[--0-0-0-0-0-0-1-1-0-0-0-0-------------------]

*Note: 2nd Guitar Plays A.H.

VERSE 1

(Guitar 1) Rhy Fig. 1
D#|--------------------------------------|--------------------------------------|
A#|--------------------------------------|--------------------------------------|
F#|----------------------7-----5---------|----------------------7-----5---------|
C#|--(5)----5--7--8~~-------8-----7--5---|--(5)----5--7------------8-----7--5---|
G#|--------------------------------------|---------------8~~--------------------|
C#|--------------------------------------|--------------------------------------|

End Rhy Fig. 1
D#|--------------------------------------------|--------------------------------------|
A#|--------------------------------------------|--------------------------------------|
F#|----------------------------7-----5---------|----------------------7-----5---------|
C#|--(5)----5--7--(7)b8r7b8~~-----8-----7--5---|--(5)--------------------8-----7--5---|
G#|--------------------------------------------|--------8-6--5------------------------|
C#|--------------------------------------------|--------------------------------------|

(Guitar 2) Play w/ Rhy Fig. 1 Pm---|
D#[----------------|----------------|-----------------|----------------]
A#[----------------|----------------|-----------------|----------------]
F#[----------------|----------------|-----------------|----------------]
C#[--5----5--7--8--|--5----5--7--3--|--5----5--7--7~--|--5----------0--]
G#[--5----5--7--8--|--5----5--7--3--|--5----5--7--7~--|--5----3--1--0--]
C#[--5----5--7--8--|--5----5--7--3--|--5----5--7--7~--|--5----3--1--0--]

The sun will die
On us tonight
The days are gone
For everyone


(Keyboard arr. for guitar) w/ Riff A (4Dead 2x
D#[---------------------|---------------------]
A#[---------------------|---------------------]
F#[-----7-8------11-12--|-----8-7------11-12--]
C#[-----7-8------11-12--|-----8-7------11-12--]
G#[-----5-6-------9-10--|-----6-5-------9-10--]
C#[---------------------|---------------------]

VERSE 2

--Rhy Fig 1 (1Dead w/Riff A (4Dead--

The holy cry
Forever night
What have we done?
Who killed the sun?

(Keyboard arr. for guitar) w/ Riff A (4Dead 2x
Fill 1--------->| Fill 2----------->|
D#[---------------------|---------------------]
A#[---------------------|---------------------]
F#[-----7-8--11~~-------|-----7-8------11-12--]
C#[-----7-8--11~~-------|-----7-8------11-12--]
G#[-----5-6---9~~-------|-----5-6-------9-10--]
C#[---------------------|---------------------]

CHORUS

Riff B----------------------------------------|
(Guitar 1&2) 8x
D#[--------------------------------------------]
A#[--------------------------------------------]
F#[--------------------------------------------]
C#[---7-7-7-7-7-----13---12-------10-----8-----]
G#[---7-7-7-7-7-----13---12-------10-----8-----]
C#[---7-7-7-7-7-----13---12-------10-----8-----]

(Violin arr. for guitar) Play w/ Riff B
D#[--------------------------------------------]
A#[--------------------------------------------]
F#[---14--12--15---14----I havent figured this part out yet...
C#[--------------------------------------------]
G#[--------------------------------------------]
C#[--------------------------------------------]

We will be
On our knees
The time has come
Thy will be done
Holy men pray
Return the day
For our souls

(Keyboard arr. for guitar) w/ Riff A (1Dead
D#|---------------------|
A#|---------------------|
F#|-----7-8------11-12--|
C#|-----7-8------11-12--|
G#|-----5-6-------9-10--|
C#|---------------------|

VERSE 3

(Guitar 1)
D#|--------------------------------------|--------------------------------------|
A#|--------------------------------------|--------------------------------------|
F#|----------------------7-----5---------|----------------------7-----5---------|
C#|--(5)----5--7--8~~-------8-----7--5---|--(5)----5--7------------8-----7--5---|
G#|--------------------------------------|---------------8~~--------------------|
C#|--------------------------------------|--------------------------------------|

D#|--------------------------------------------|--------------------------------------|
A#|--------------------------------------------|--------------------------------------|
F#|----------------------------7-----5---------|----------------------7-----5---------|
C#|--(5)----5--7--(7)b8r7b8~~-----8-----7--5---|--(5)--------------------8-----7--5---|
G#|--------------------------------------------|--------8-6--5------------------------|
C#|--------------------------------------------|--------------------------------------|

(Guitar 2) Play w/ Rhy Fig. 1 Pm---|
D#[----------------|----------------|-----------------|----------------]
A#[----------------|----------------|-----------------|----------------]
F#[----------------|----------------|-----------------|----------------]
C#[--5----5--7--8--|--5----5--7--3--|--5----5--7--7~--|--5----------0--]
G#[--5----5--7--8--|--5----5--7--3--|--5----5--7--7~--|--5----3--1--0--]
C#[--5----5--7--8--|--5----5--7--3--|--5----5--7--7~--|--5----3--1--0--]

How can we fight,
This endless night?
Oh, Lord Jesus,
Will you save us?

(Keyboard arr. for guitar) w/ Riff A (1Dead
D#|---------------------|
A#|---------------------|
F#|-----7-8-------8-7---|
C#|-----7-8-------8-7---|
G#|-----5-6-------6-5---|
C#|---------------------|

(Guitar 1&2) 4x
D#[----------------------|---------------------]
A#[----------------------|---------------------]
F#[----------------------|---------------------]
C#[--------7-------------|-----------------7\--]
G#[---5---------8--7--5--|--5--------8--7--7\--]
C#[----------------------|-----------------7\--]


(Guitar 1) w/ Riff A (2Dead & Fill 1 (1st time) + Fill 2 (2nd time)
Pm----------------------| 2x
D#[--------------------------------------------|-----------------------]
A#[--------------------------------------------|-----------------------]
F#[---------------------------7-----5----------|-----------------------]
C#[------------------------------8-----7--5----|--(5)------------------]
G#[--0-0-0-0-0-0-1-1-0-0-0-0-------------------|-----------------------]
C#[--0-0-0-0-0-0-1-1-0-0-0-0-------------------|-----------------------]


(Keyboard arr. for guitar) w/ Riff A (4Dead 2x (Guitar 1&2)
D#[---------------------|---------------------]-------||
A#[---------------------|---------------------]-------||
F#[-----7-8--11~~-------|-----7-8------11-12--]-------||
C#[-----7-8--11~~-------|-----7-8------11-12--]--0----||
G#[-----5-6---9~~-------|-----5-6-------9-10--]--0----||
C#[---------------------|---------------------]--0----||


Transcribed by Steve Shyshak ([email protected])
Başa dön
Kullanıcı profilini gör Özel mesaj gönder E-mail'i gönder Yahoo Messenger MSN Messenger
Novembre
Geçerken Uğrayan
Geçerken Uğrayan


Kayıt: Oct 09, 2004
Mesajlar: 5


MesajTarih: Sal Ksm 23, 2004 7:18 pm    Mesaj konusu: GRACE UNHEARING Alıntıyla Cevap Ver
Mesaj: #8   

Grace Unhearing

Tune to C#, then drop the lowest string another step, so that you can get
that low C5 chord.

Timings probably off, but I tried to seperate some parts into measures.
Just listen to the song and you'll figure it out. The only riff I'm not
certain about is "Riff3 - Guitar 2". When I play along w/ the cd, I play
the other part, and I just now took the time to do the second guitar part
to it. Enjoy!

Riff1
|------------------|-----------------|------------------|--------------------|
|------------------|-----------------|------------------|--------------------|
|------------------|-----------------|------------------|--------------------|
|------------------|-----------------|------------------|--------------------|
|--2--2--2-2-------|-1--1--1-1-------|--2--2--2-2-------|-1--1--1-1----------|
|--2--2--2-2--5--4-|-1--1--1-1--5--4-|--2--2--2-2--5--4-|-1--1--1-1--5--4----|
Falling... Drowning... Deeper... and Forever..

|------------------|-----------------|------------------|--------------------|
|------------------|-----------------|------------------|--------------------|
|------------------|-----------------|------------------|--------------------|
|------------------|-----------------|------------------|--------------------|
|--2--2--2-2-------|-1--1--1-1-------|--2--2--2-2-------|-1--1--1-1----------|
|--2--2--2-2--5--4-|-1--1--1-1--5--4-|--2--2--2-2--5--4-|-1--1--1-1--5--4----|
Choking... Sinking... Deeper... into this Ocean..



Riff2 - Guitar2
. . . . . . . . . . . . . .
|------------------------------------|---------------------------------------|
|------------------------------------|---------------------------------------|
|------------------------------------|---------------------------------------|
|---------7-----7-9h10p9-7ah---------|---------7-----7-9h10p9-7ah------------|
|--7-9-10----10---------------9-10-9-|--7-9-10----10--------------9-10-9-----|
|------------------------------------|---------------------------------------|

Riff2 - Guitar2
|----------------------------------------------------------------------------|
|----------------------------------------------------------------------------|
|----------------------------------------------------------------------------|
|----------------------------------------------------------------------------|
|--2--2---------1--1--------------------2--2--------1--1---------------------|
|--2--2---------1--1--------------------2--2--------1--1---------------------|


Riff1 Fill
|----------------------|
|----------------------|
|----------------------|
|----------------------|
|--2--2--2-2-----------|
|--2--2--2-2--5--4--5--|



Riff3 - Guitar 1 trill
|---------------------------------------------------------------|
|---------------------------------------------------------------|
|-------------------------10--9(10)---7-9-10-9-----7------------|
|--7----9-7-9-10---9-7--9-----------------------10---10--9h10p9-|
|---------------------------------------------------------------|
|---------------------------------------------------------------|

Riff3 - Guitar 2
|---------------------------------------------------------------|
|---------------------------------------------------------------|
|---------------------------------------------------------------|
|---------------------------------------------------------------|
|-------8-7-5-7----3-5--3-----2-------8-7-5-7---3-5--3-----2----|
|--7------------------------------------------------------------|

Bass By itself for measure or two.. then

Riff4A
|--------------------|-------------------|---------------------|
|--------------------|-------------------|---------------------|
|--------------------|-------------------|---------------------|
|----5~-----5~-----5-|---5~-----5~-----5-|---5~------5~------5-|
|--7------7------7---|-6------6------6---|-7-------7-------7---|
|--------------------|-------------------|---------------------|

|--------------------|
|--------------------|
|--------------------|
|----5~-----5~-----5-|
|--6------6------6---|
|--------------------|

Riff4B (Variation of 4A) - Guitar 1
. . . . . . . . . . etc
|------------------|-----------------|-----------------|---------------------|
|------------------|-----------------|-----------------|---------------------|
|----6-5---5-------|---6-5---5-------|---6-5---5-------|---6-5---5-----------|
|--7-----7---7-6-7-|-6-----6---7-6-7-|-7-----7---7-6-7-|-6-----6---7-6-7-----|
|------------------|-----------------|-----------------|---------------------|
|------------------|-----------------|-----------------|---------------------|

Riff4B - Guitar 2
|-12-----------------11--------------|
|--------------------------12--11----|
|------------------------------------|
|------------------------------------|
|------------------------------------|
|------------------------------------|



Riff5
|-------|--------------------------------------------------------------------|
|-------|--------------------------------------------------------------------|
|-------|--------------------------------------------------------------------|
|-------|--------------------------9--8-9-9-------------------------9--8-9-10|
|--2-2--|--2-2--5-4-4--2--2-2--5-4-7--6-7-7-2-2--5-4-5--2--2-2--5-4-7--6-7-8-|
|--2-2--|--2-2--5-4-5--2--2-2--5-4----------2-2--5-4-5--2--2-2--5-4----------|

Lead(??) over Riff 5
|----------------------------------------------------------------|
|----------------------------------------------------------------|
|----------------------7---------------------------------7----7--|
|----10-7-9-10-9~--7-9----10-9-----10-7-9-10-9~--7910-910--10----|
|-7-----------------------------7--------------------------------|
|----------------------------------------------------------------|

|---------------------------10------------------------------------------|
|----13-10-12-13-12~--10-12-----13-12-----13-10-12-13-12~--10-----------|
|-9------------------------------------9----------------------12-11-11--|
|-----------------------------------------------------------------------|
|-----------------------------------------------------------------------|
|-----------------------------------------------------------------------|

|--------------------------|
|--------------------------|
|--12--10ah~~--12--10ah~~--|
|--------------------------|
|--------------------------|
|--------------------------|


Song Order

Riff1 - x2
Riff2 - x2
Riff1 - x2
Riff1 Fill - x1
Riff3 - x2
Bass by itself
Riff4A - x2
Riff4B - x2
Riff4A - x2
Riff4B - x2
Riff2 - x1
Riff5(w/Lead) - x? (so I'm too lazy to count =) )

uhmm .. figure the rest of the order out. I typed all the riffs, and that's
all that's really important =)

Tabbed by Murad ([email protected])
Başa dön
Kullanıcı profilini gör Özel mesaj gönder E-mail'i gönder Yahoo Messenger MSN Messenger
Novembre
Geçerken Uğrayan
Geçerken Uğrayan


Kayıt: Oct 09, 2004
Mesajlar: 5


MesajTarih: Sal Ksm 23, 2004 7:19 pm    Mesaj konusu: YOU SHAMEFUL HEAVEN Alıntıyla Cevap Ver
Mesaj: #9   

---------------------------------------------------------------------------
/ The following is the author's own interpretation of the song, to be used -
/ for studying or private use only, removal of any part of this ten line -
/ header is illegal!!! Removal of the transcribers name or anything -
/ relevant to the transcriber is also illegal, as so is the removal of the -
/ place inwhich the tab was downloaded. Publishing as well as printing of -
/ the tab is illegal without permission of the transcriber and copyright -
/ owner of the song. Failure to apply to these laws result will in legal -
/ action from the appropriate parties. -
/---------------------------------------------------------------------------


downloaded from the Catacombs of Displacer's Death Tab Site at
http://www.dsrmusic.com/metaltab
join the death/black tab emailing list by filling out the free
subscription form at http://www.dsrmusic.com/metaltab/join.htm


My Dying Bride: You Shameful Heaven

Tune down 1.5 steps(C#). The timing is easy to figure out.

Riff 1 (x6)
------------------------------------------------------------
------------------------------------------------------------
------------------------------------------------------------
2------------3------------2---------------------------------
2------------3------------2---------------------------------
0------------1------------0-----------1-4-3-4-3----4-3-4-1--


Riff 2 (x2)
Guitar 1
-------------------------------------------------------------------
-------------------------------------------------------------------
-------------------------------------------------------------------
---5---------------------------------5------------------3----------
------5--6-------3--------5-------------5--6-------3-------5-------
3-------------5--------5-------6--3-------------5---------------6--

Guitar 2
---------------------------------------------------------------------
---------------------------------------------------------------------
--------------------5---------------------------------5-----5--7-----
5--5--7--8----7--8-----5--7--8--7--5--5--7--5----5--7-----7--------7-
---------------------------------------------------------------------
---------------------------------------------------------------------

Riff 3 (x6)
-----------------------------------------------------------
-----------------------------------------------------------
--------------------------------------------------------7--
2---------------------3--5--2---------------------5--6--7--
2---------------------3--5--2---------------------5--6--5--
0-0-0-0-0-0-0-0-0-0-0-1--3--0-0-0-0-0-0-0-0-0-0-0-3--4-----

(1st, 3rd, & 5th ending to Riff 3)
------------------------------------------
------------------------------------------
------------------------------------------
7----5--7--5--7(ph)-----------------------
-----------------------3---2---0----------
----------------------------------3----2--

(2nd, 4th, & 6th ending to Riff 3)
----------------------------------------------------
----------------------------------------------------
----------------------------------------------------
7-8-7-10-8-7----7-8-7-8-10--------------------------
-------------10------------------3---2---0----------
--------------------------------------------3----2--

Riff 1 (x6)

Riff 4 (Intro)
----------------------------
----------------------------
----------------------------
7-8-7-10--8--7--8--7----6---
----------------------------
----------------------------

Riff 4 (x10)
-------------------------------------------
-------------------------------------------
-------------------------------------------
7-----7-----------------------7----6----5--
7-----7-----------------------7----6----5--
5-----5-----5-6-5-8--6--5--6--5----4----3--

2nd Guitar (Riff 4(x's 4-Cool)
--------------------------------------------
--------------------------------------------
--------------------------------------------
7----7-8-7--7-8-7-10-8--7--8--7----6----5(ph)
--------------------------------------------
--------------------------------------------

Riff 2 (x2)


Riff 3 (x6 w/endings)
Ending 6th time
----------------------------
----------------------------
----------------------------
----------------------4--2--
3---2---0-------------4--2--
-----------3----------2--0--
Başa dön
Kullanıcı profilini gör Özel mesaj gönder E-mail'i gönder Yahoo Messenger MSN Messenger
Novembre
Geçerken Uğrayan
Geçerken Uğrayan


Kayıt: Oct 09, 2004
Mesajlar: 5


MesajTarih: Sal Ksm 23, 2004 7:21 pm    Mesaj konusu: SEAR ME Alıntıyla Cevap Ver
Mesaj: #10   

Sear Me
C# tuning, down 1 1/2 steps.


Bass intro
|-----|-----|----|---------
|-----|-----|----|---------
|-----|-0---|----|-----0---
|--0--|---2-|--0-|--2------


Riff A 6 Times
|-------------------------|------------------------
|-------------------------|------------------------
|-------------------------|------------------------
|-------------------------|-7-----7----------------
|-7---10-9-10-7---10-9-10-|----10--10--9---10-9-10-
|-------------------------|------------------------


Riff B
|------------|-----------|----------|-------------- Guitar 2 plays riff B 6 Times
|------------|-----------|----------|-------------- while guitar 1 plays riff A
|------------|-----------|----------|-------------- another 12 Times.
|-9-10-9-7-9-|--7-9-10-7-|----------|--------------
|------------|-----------|-7-----5--|--7------9----
|------------|-----------|----------|--------------


|-----|----------------------|---------------------|----------------------
|-----|----------------------|---------------------|----------------------
|-----|o---------------------|---------------------|----------------------
|-----|o---------------------|---------------------|----------------------
|-2---|----------------------|---------------------|----------------------
|-0---|--0000-0000-8888-7788-|-0000-0000-8888-7788-|-0000-0000-8888-7788--

4 Times
|-----------------------|-----------------------
|-----------------------|-----------------------
|----------------------o|-----------------------
|----------------------o|-----------------------
|-------------6666-5555-|------------8888-7777--
|--3333-3333------------|--5555-5555------------


|---------------------------------------------|Guitar one follow bottom numbers
|---------------------------------------------|Guitar two follow top numbers
|o-------------------------------------------o|
|o-----9-8-9--4--5-4-5--3--4-3-4--7--6-7-6---o|
|--5---7-6-7--2--3-2-3--1--2-1-2--5--4-5-4----|
|--3------------------------------------------|


|------------------------------------------------|
|------------------------------------------------|
|o----------------------------------------------o|
|o-------9989--3333-5545--3333-4434--7777-6676--o|
|--5555--7767--2222-3323--1111-2212--5555-4454---|
|--3333------------------------------------------|

6 Times
|---------------------------------------------|
|---------------------------------------------|
|o-------------------------------------------o|
|o-----9-8-9--4--5-4-5--3--4-3-4--7--6-7-6---o|
|--5---7-6-7--2--3-2-3--1--2-1-2--5--4-5-4----|
|--3------------------------------------------|

Twice
|------------------------------------------
|------------------------------------------
|------------------------------------------
|------------------------------------------
|------------------------------------------
|--3----(feedback)---1--(feedback)---------

4 Times
|-----------|------------------|
|-----------|------------------|
|o----------|-----------------o|
|o----------|-----------------o|
|------5----|----3-------------|
|---3-----6-|--5---3--7---4----|


Twice
|------------------------------------------
|------------------------------------------
|------------------------------------------
|------------------------------------------
|------------------------------------------
|--3----(feedback)---1--(feedback)---------

4 Times
|-----------|------------------|
|-----------|------------------|
|o----------|-----------------o|
|o----------|-----------------o|
|------5----|----3-------------|
|---3-----6-|--5---3--7---4----|


|-----------------------------------|----------------
|-----------------------------------|----------------
|o---------------------------------o|----------------
|o---------------------------------o|----------------
|-----------------------------------|----------------
|--3----(feedback)---1--(feedback)--|-3--(feedback)--


Spoken part

Riff A 6 Times
|-------------------------|------------------------
|-------------------------|------------------------
|-------------------------|------------------------
|-------------------------|-7-----7----------------
|-7---10-9-10-7---10-9-10-|----10--10--9---10-9-10-
|-------------------------|------------------------


Riff B
|------------|-----------|----------|-------------- Guitar 2 plays riff B 6 Times
|------------|-----------|----------|-------------- while guitar 1 plays riff A
|------------|-----------|----------|-------------- another 12 Times.
|-9-10-9-7-9-|--7-9-10-7-|----------|--------------
|------------|-----------|-7-----5--|--7------9----
|------------|-----------|----------|--------------

Slows down and ends on an E5 chord.


Tabbed and Typed by Justin Mcferran
Başa dön
Kullanıcı profilini gör Özel mesaj gönder E-mail'i gönder Yahoo Messenger MSN Messenger
Novembre
Geçerken Uğrayan
Geçerken Uğrayan


Kayıt: Oct 09, 2004
Mesajlar: 5


MesajTarih: Sal Ksm 23, 2004 7:23 pm    Mesaj konusu: THE CROWN OF SYMPATY Alıntıyla Cevap Ver
Mesaj: #11   

My Dying Bride: About the Music




The Crown of Sympathy
Tuning : C#,G#,E,B,F,C#

---------------------------------------
---------------------------------------
--------------2---2-2-2-2--------------
----5-4-2---5-------------5-3----------
-2-------------------------------------
-0-------------------------------------

---------------------------------------
---------------------------------------
------------2-5---5-5-5-5-4-2----------
----5-4-2------------------------------
-2-------------------------------------
-0-------------------------------------

---------------------------------------
---------------------------------------
-------------2---2-2-2-2-2-------------
----5-4-2--5---------------5-3---------
-2-------------------------------------
-0-------------------------------------

---------------------------------------
---------------------------------------
---------------------------------------
---------------------------------------
--2----2----2----2----2----2----2----2-
--0----0----0----0----0----0----0----0-

---------------------------------------
---------------------------------------
---------------------------------------
---------------------------------------
--2----2----2----2----2----2--2-2-2-24-
--0----0----0----0----0----0--0-0-0-02-

---------------------------------------
---------------------------------------
---------------------------------------
---------------------------------------
-54-4-4-4-4-4-4-24-54-4-4-4-4-4-4-24---
-32-2-2-2-2-2-5-02-32-2-2-2-2-2-2-02---

---------------------------------------
---------------------------------------
---------------------------------------
---------------------------------------
-54-4-4-2-------24-54-4-4-4-------24---
-32-2-2-0-------02-32-2-2-2-------02---

---------------------------------------
---------------------------------------
---------------------------------------
---------------------------------------
-54-4-4-4-4-4-4-24-54-4-4-4-4-4-4-24---
-32-2-2-2-2-2-5-02-32-2-2-2-2-2-2-02---


---------------------------------------
---------------------------------------
----------------------2----------------
---------2------24-5-----5---4--2------
-54-4-4---------------------------24---
-32-2-2---------------------------02---


---------------------------------------
---------------------------------------
---------------------------------------
---------------------------------------
-54-4-4-4-4-4-4-24-54-4-4-4-4-4-4-24---
-32-2-2-2-2-2-5-02-32-2-2-2-2-2-2-02---

---------------------------------------
---------------------------------------
---------------------------------------
---------------------------------------
-54-4-4-2-------24-54-4-4-4-------24---
-32-2-2-0-------02-32-2-2-2-------02---

---------------------------------------
---------------------------------------
---------------------------------------
---------------------------------------
-54-4-4-4-4-4-4-24-54-4-4-4-4-4-4-24---
-32-2-2-2-2-2-5-02-32-2-2-2-2-2-2-02---

---------------------------------------
---------------------------------------
----------------------2----------------
---------2------24-5-----5---4--2------
-54-4-4--------------------------------
-32-2-2--------------------------------

---------------------------------------
---------------------------------------
------------2---5---5-5-5-5-4-2--------
----5-4-2------------------------------
-2-------------------------------------
-0-------------------------------------

---------------------------------------
---------------------------------------
----------------2---2-2-2-2------------
----5-4-2---5---------------5-3--------
-2-------------------------------------
-0-------------------------------------

-------------------------------------------------
-------------------------------------------------
----------3--323532--353------2-----2----23-2-5--
-5---5--5----------------4--45-54-45-5-5---------
-------------------------------------------------

-------------------------------------------------

-------------------------------------------------
-------------------------------------------------
-------2---3--323532--353------2-----2----23-2-5-
-5---5--5-5----------------4--45-54-45-5-5-------
-------------------------------------------------
-------------------------------------------------

-7------7-----8--7-8-10--7------7--8--------8----
----10----10----------------10-------------------
--------------------------------------10--10--10-
-------------------------------------------------
-------------------------------------------------
-------------------------------------------------

-------------------------------------------------
--------------------3--------------------5-------
--4--2-4--2--5--4-5------4--2-4--5--3--3----3----
-------------------------------------------------
-------------------------------------------------
-------------------------------------------------

Tabs supplied by Suzuki Tetunori ([email protected])
Başa dön
Kullanıcı profilini gör Özel mesaj gönder E-mail'i gönder Yahoo Messenger MSN Messenger
Novembre
Geçerken Uğrayan
Geçerken Uğrayan


Kayıt: Oct 09, 2004
Mesajlar: 5


MesajTarih: Sal Ksm 23, 2004 7:24 pm    Mesaj konusu: THE RETURN OF BEAITIFUL Alıntıyla Cevap Ver
Mesaj: #12   

The Return of the Beautiful

x=palm mute
xx
D---------------------2---3
A------2-----22-------0---1
E------0-----00------------

A----3----5---8--7--7----3---5--1--0--0---------
E------------------------------------------3---1
xx
D---------------------2---3
A------2-----22-------0---1
E------0-----00------------

D----------------------7--6
A---2--5--4--2--3--1---5--4
E--------------------------

Played 1 time
D----4--5--7--8--4--5
A----2--3--5--6--2--3

First Guitar
D----5--4--7----------------------------5---4---7---8--
A--------------6---------------------------------------
Second Guitar
D-------------------4--5--7--8--4--5------------------4--5--7--8--4--5
A-------------------2--3--5--6--2--3------------------2--3--5--6--2--3

Both guitars (depresive part)
D-----------------------------8
A---5--------4-------7---7---
E----3-------2-------5--------

Aggresive part
xxx xxx
A--4--222--5--4--7--5--4--222
E--2--000--3--2--5--3--2--000

First Guitar
D--------8--7--5-----8--7---10
A----5-------------7------------
Second guitar
D--------8--7--5---------------
A----5-------------3------5---6

Ending riff before some noise.
A--2
E--0

The first death part(I´m not shure if this is exactly right)
D---------0000---------------2222
A111111------1111000000-----0000
Second death part(I´m not shure if this is exactly right)
A-----666655556666111111333311110000
E3333---------------------------------------------

Both guitars (depresive part)
D-----------------------------8
A---5--------4-------7---7---
E----3-------2-------5--------

Aggresive part(ending part)
xxx xxx
A--4--222--5--4--7--5--4--222
E--2--000--3--2--5--3--2--000


Tabs supplied by Robin Wrethager ([email protected])
Başa dön
Kullanıcı profilini gör Özel mesaj gönder E-mail'i gönder Yahoo Messenger MSN Messenger
Novembre
Geçerken Uğrayan
Geçerken Uğrayan


Kayıt: Oct 09, 2004
Mesajlar: 5


MesajTarih: Sal Ksm 23, 2004 7:25 pm    Mesaj konusu: THE SNOW IN MY HAND Alıntıyla Cevap Ver
Mesaj: #13   

The Snow in my Hand

Intro (x4)

A--7----7--------------------------------------
E---------0--7--10--8--8----7-8-10----8--10----


Rhy 1 (x 4) (2nd time: start to sing "I've seen them")
(*)
A--10------5--11--10------13--12----12--10--10------8--5--
E---8------3---9---8------11--10----10---8---8------6--3--

(*) 4th time: don't play


Break (x2)

D----------------------11--13--14--
A--13----11--13--14-----9--11--12--
E--11-----9--11--12----------------


Rhy 2 (x2) ("Get away from me" and "I-I need help")

(^^^^^^^^^^^^^^^^^^^^^^^^^^^^^^^^^^^^^^^^^^^^^^)
A--7------10---8--10-----11--13--8---11----13--15--3--16---15--
E--5-------9---6--8-------9--11--6----9----11--13--1--14---13--

(^^^^^^^^^^^^^^^^^^^^^^^^^^^^)
A--7------10---8--10-----11--13--
E--5-------9---6---8------9--11--

A------3--16----15--13--11--
E------1--14----13--11---9--

A--3-3-3--16----15--13--14--
E--1-1-1--14----13--11--13--

A--3-3-3--16----13--15--11--
E--1-1-1--14----11--13---9--

A--3-3-3--16----15--13--11--
E--1-1-1--14----13--11---9--

(^) repeated very fast


Rhy 3 (x2)

A---7-----7-----7--10--10--
E---5-----5-----5---8---8--

A--10--12--13--12--13-------12---13/12---8--7------5--7--8-8-
E---8--10--11--10--11-------10---11/10---6--5------3--5--6-6-


Rhy 4 (x4) (2nd time start to sing: "Lose myself")

(^) (^)
A--7------8--7--8-10--8-11-10-----
E--5------6--5--6--8--6--9--8-----

(^) (^)
A-10-11---8--7--------7-11---8-10--
E--8--9---6--5--------5--9---6--8--

A-10-11-10-8-10--8-
E--8--9--8-6--8--6-


Rhy 5 (x6)
(#)
A--12----12----12----12--16---13--15----15----15----15--12---10-
E--10----10----10----10--14---11--13----13----13----13--14---11-

(#) 2nd and 6th time: don't play


Repeat Rhy 1 (x5) (2nd time start to sing "I had watched the snow")

tabbed by Alex Meroni ([email protected])
Başa dön
Kullanıcı profilini gör Özel mesaj gönder E-mail'i gönder Yahoo Messenger MSN Messenger
Novembre
Geçerken Uğrayan
Geçerken Uğrayan


Kayıt: Oct 09, 2004
Mesajlar: 5


MesajTarih: Sal Ksm 23, 2004 7:27 pm    Mesaj konusu: INTO THE LAKE OF GODS Alıntıyla Cevap Ver
Mesaj: #14   

Into the Lake of Ghosts
Tuning Low to High - DGCFAD (ONE STEP LOWER THAN STANDARD TUNING)


I've managed to figureout parts of this song off TLATEOTW.
Majority of the 'verse' uses the following riff:

d|-----------||-------------------|--------------------||--------
a|-----------||-------------------|--------------------||--------
f|-----------||-------------------|--------------------||--------
c|-/7(echo)--||7-5-----7-8-8-7-5-8|8--7-5----7-8-87-5-8||--------
g|-----------||---87-5------------|------87-5----------||--------
d|-----------||-------------------|--------------------||--------
intro main verse riff>>>>>>>>>>>>>>>>>>>>>>>>>|



So endeth today's lesson. I know it's not much. I have sort of got the
rest of this song, but I'm refining it and getting ready to tab it out
for you guys! I forgot how long it takes to type all this in! I'm used
to hand writing it on music paper!!!!


The first 'chorded' part appears to be:

A(slide to)C/////Db (then some palm muted single notes and a harmonic)
dgcfad dgcfad dgcfad -strings
355 577 688 -fret position
With heavy palm muting

Have fun.

Tabbed by Jon C ([email protected])
Başa dön
Kullanıcı profilini gör Özel mesaj gönder E-mail'i gönder Yahoo Messenger MSN Messenger
Novembre
Geçerken Uğrayan
Geçerken Uğrayan


Kayıt: Oct 09, 2004
Mesajlar: 5


MesajTarih: Sal Ksm 23, 2004 7:28 pm    Mesaj konusu: THE SONGLESS BIRD Alıntıyla Cevap Ver
Mesaj: #15   

The Songless Bird

Piano intro
both guitars
Let the first three chords ring!
D--------2--------5----------8-------------------------------
A-------2--------5-----------6----------8-9-8-7-9-10-9--5
E-------0--------3--------------------------------------------

D--------2--------5----------8-------------------------------
A---------2---------5------------6---------1---------2--------------
E---------0---------3----------------------------------------------3--

Play this one 7 times
D----2-----5----4-----8|---2----5----6----3-
A----2----5----4-----6-|---2----5----4----1-
E----0----3----2--------|---0----3------------


Let the first three chords ring!
D--------2--------5----------8-------------------------------
A-------2--------5-----------6----------8-9-8-7-9-10-9--5
E-------0--------3--------------------------------------------

D--------2--------5----------8-------------------------------
A---------2---------5------------6---------1---------2--------------
E---------0---------3----------------------------------------------3--

First guitar (clean sound) played 10 times
G--------7------------------------------------------------------------
D------------8---7---5---7------------------------------------------
A---5--------------------------8----7-----3---5---3---2---0-------
E-----------------------------------------------------------------3--3

G---------------------------------------------
D------------3---5---6---5---3---5---7---8
A---3---5------------------------------------
E---------------------------------------------

second guitar (heavy distortion) fit it in yourself play it 6 times

A---1-----3-----5-----6|---5----7----10----1----3----5----6
both guitars play it 12 times

D--2-2-2----3-------------------------------
A--2-2-2----1-----2--3--2--0-----0------3
E--0-0-0------------------------4------1----

Let the first three chords ring! Play it 4 times
D--------2--------5----------8-------------------------------
A-------2--------5-----------6----------8-9-8-7-9-10-9--5
E-------0--------3--------------------------------------------

D--------2--------5----------8-------------------------------
A---------2---------5------------6---------1---------2--------------
E---------0---------3----------------------------------------------3--

Play this one 4 times
D----2-----5----4-----8|---2----5----6----3-
A----2----5----4-----6-|---2----5----4----1-
E----0----3----2--------|---0----3------------

Done by Robin Wrethager([email protected])
Başa dön
Kullanıcı profilini gör Özel mesaj gönder E-mail'i gönder Yahoo Messenger MSN Messenger
Novembre
Geçerken Uğrayan
Geçerken Uğrayan


Kayıt: Oct 09, 2004
Mesajlar: 5


MesajTarih: Sal Ksm 23, 2004 7:30 pm    Mesaj konusu: BASE LEVEL EROTICA Alıntıyla Cevap Ver
Mesaj: #16   

Base Level Erotica
Tune down 1-1/2 step (traditional for MDB). I`ve tried to write it in the
right rhythm.

1st guitar repeats this 2 times (clean), the 2nd guitar comes in...
C#|----------------------------------------------------------------|
G#|----------------------------------------------------------------|
E |----------------------------------------------------------------|
B |--------2-2-2-------2-2-1-1-0-0---------------------------------|
F#|--------------------------------1-1-1-1-1-1-1-0-2-2-2-0---------|
C#|0-0-0-0-------0-0-0-------------------------------------3-3-2-2-|

2nd guitar - clean
C#|-------------------------------------|
G#|12-13-13-12-13-13-12-13--15-13-------|
E |-------------------------------------|
B |-------------------------------------|
F#|-------------------------------------|
C#|-------------------------------------| 4 times. Then it changes to:

C#|----14--12------14--12------14--12------14--12------14--12------|
G#|12----------12----------12----------12----------12----------12--|
E |----------------------------------------------------------------|
B |----------------------------------------------------------------|
F#|----------------------------------------------------------------|
C#|----------------------------------------------------------------|

C#|----17--15------17--15------15--------------14--19--------------|
G#|15----------15----------15--------------17----------------------|
E |------------------------------------16--------------------------|
B |----------------------------------------------------------------|
F#|----------------------------------------------------------------|
C#|----------------------------------------------------------------|

Repeated 4 times...

2nd guitar (still clean)
C#|----------------------------------------------------------------|
G#|----------------------------------------------------------------|
E |----------------------------------------------------------------|
B |----------------------------------------------------------------|
F#|----12------10------------------9-----------7-------------------|
C#|0-------0-------------------0-----------0-----------------------|

C#|----------------------------------------------------------------|
G#|----------------------------------------------------------------|
E |----------------------------------------------------------------|
B |----------------------------------------------------------------|
F#|----12------10------------------9-------10--7-------------------|
C#|0-------0-------------------0-----------------------------------|

2 times

W\ distortion and some art.harmonics.
C#|----------------------------------------------------------------|
G#|----------------------------------------------------------------|
E |----------------------------------------------------------------|
B |----------------9-----------------------9-------8-------7-------|
F#|2---------------7-----------2-----------7-------6-------5-------|
C#|0---------------------------0-----------------------------------|
3 times

C#|----------------------------------------------------------------|
G#|----------------------------------------------------------------|
E |----------------------------------------------------------------|
B |----------------9-----------------------9--------------12-------|
F#|2---------------7-----------2-----------7-------2------10-------|
C#|0---------------------------0-------------------0---------------|

Now whole band enters...

Rhythm:
C#|----------------------------------------------------------------|
G#|----------------------------------------------------------------|
E |----------------------------------------------------------------|
B |----------------9-----------------------9-------8-------7-------|
F#|2---------------7-------2---------------7-------6-------5-------|
C#|0---0---0---0-----------0---0---0---0---------------------------|
p.m. . . . . .

2nd guitar
C#|----------------------------------------------------------------|
G#|9---------------------------------------------------------------|
E |----------------11----------9-----------------------------------|
B |----------------------------------------------------------------|
F#|----------------------------------------------------------------|
C#|----------------------------------------------------------------|
3 times

C#|----------------------------------------------------------------|
G#|9---------------------------10------12--9-----------------------|
E |----------------11----------------------------------------------|
B |----------------------------------------------------------------|
F#|----------------------------------------------------------------|
C#|----------------------------------------------------------------|

C#|----------------------------------------------------------------|
G#|12--13--13--12--13--13--12--13------15--12----------------------|
E |----------------------------------------------------------------|
B |----------------------------------------------------------------|
F#|----------------------------------------------------------------|
C#|----------------------------------------------------------------|
3 times

C#|----------------------------------------------------------------|
G#|12--13--13--12--13--13--12--13--13--12--13--13--12--13--15------|
E |----------------------------------------------------------------|
B |----------------------------------------------------------------|
F#|----------------------------------------------------------------|
C#|----------------------------------------------------------------|

Now the rhythm changes:
C#|----------------------------------------------------------------|
G#|----------------------------------------------------------------|
E |----------------------------------------------------------------|
B |----------------------------------------------------------------|
F#|7-----------------------7---5---9-----------------------9---7---|
C#|5-----------------------5---3---7-----------------------7---5---|

C#|----------------------------------------------------------------|
G#|----------------------------------------------------------------|
E |----------------------------------------------------------------|
B |------------------------------------------------9---------------|
F#|5-----------------------5---7---2---------------7-------2-------|
C#|3-----------------------3---5---0---0---0---0-----------0---0---|
p.m. . . .
C#|----------------------------------------------------------------|
G#|----------------------------------------------------------------|
E |----------------------------------------------------------------|
B |--------5-------7-------6---------------------------------------|
F#|--------7-------6-------5-------7-----------------------7---5---|
C#|0---0---------------------------5-----------------------5---3---|
. .
C#|----------------------------------------------------------------|
G#|----------------------------------------------------------------|
E |----------------------------------------------------------------|
B |----------------------------------------------------------------|
F#|9-----------------------9---7---5-----------------------5---7---|
C#|7-----------------------7---5---3-----------------------3---5---|

2nd guitar is now playing 2x:
C#|----12--14~-------\-----9---11~--------h12p11p9h11~-----------\-|
G#|12------------------9-------------------------------------------|
E |----------------------------------------------------------------|
B |----------------------------------------------------------------|
F#|----------------------------------------------------------------|
C#|----------------------------------------------------------------|

C#|----12--14~-------\-----7---------------------------------------|
G#|12------------------7-------------------------------------------|
E |----------------------------9-----------------------------------|
B |----------------------------------------------------------------|
F#|----------------------------------------------------------------|
C#|----------------------------------------------------------------|

1st guitar returns to:
C#|----------------------------------------------------------------|
G#|----------------------------------------------------------------|
E |----------------------------------------------------------------|
B |----------------9-----------------------9-------8-------7-------|
F#|2---------------7-------2---------------7-------6-------5-------|
C#|0---0---0---0-----------0---0---0---0---------------------------|
p.m. . . . . .

C#|----------------------------------------------------------------|
G#|----------------------------------------------------------------|
E |----------------------------------------------------------------|
B |----------------9-----------------------9-------8-------7-------|
F#|2---------------7-------2---------------7-------6-------5-------|
C#|0---0---0---0-----------0---0---0---0---------------------------|
p.m. . . . . .

And 2nd guitar is playing again:
C#|----------------------------------------------------------------|
G#|9---------------------------------------------------------------|
E |----------------11----------9-----------------------------------|
B |----------------------------------------------------------------|
F#|----------------------------------------------------------------|
C#|----------------------------------------------------------------|
3 times

C#|----------------------------------------------------------------|
G#|9---------------------------10------12--9-----------------------|
E |----------------11----------------------------------------------|
B |----------------------------------------------------------------|
F#|----------------------------------------------------------------|
C#|----------------------------------------------------------------|

C#|----------------------------------------------------------------|
G#|12--13--13--12--13--13--12--13------15--12----------------------|
E |----------------------------------------------------------------|
B |----------------------------------------------------------------|
F#|----------------------------------------------------------------|
C#|----------------------------------------------------------------|
3 times

C#|----------------------------------------------------------------|
G#|12--13--13--12--13--13--12--13--13--12--13--13--12--13--15------|
E |----------------------------------------------------------------|
B |----------------------------------------------------------------|
F#|----------------------------------------------------------------|
C#|----------------------------------------------------------------|

Now the rhythm changes:
C#|----------------------------------------------------------------|
G#|----------------------------------------------------------------|
E |----------------------------------------------------------------|
B |----------------------------------------------------------------|
F#|7-----------------------7---5---9-----------------------9---7---|
C#|5-----------------------5---3---7-----------------------7---5---|

C#|----------------------------------------------------------------|
G#|----------------------------------------------------------------|
E |----------------------------------------------------------------|
B |------------------------------------------------9---------------|
F#|5-----------------------5---7---2---------------7-------2-------|
C#|3-----------------------3---5---0---0---0---0-----------0---0---|
p.m. . . .
C#|----------------------------------------------------------------|
G#|----------------------------------------------------------------|
E |----------------------------------------------------------------|
B |--------5-------7-------6---------------------------------------|
F#|--------7-------6-------5-------7-----------------------7---5---|
C#|0---0---------------------------5-----------------------5---3---|
. .
C#|----------------------------------------------------------------|
G#|----------------------------------------------------------------|
E |----------------------------------------------------------------|
B |----------------------------------------------------------------|
F#|9-----------------------9---7---5-----------------------5---7---|
C#|7-----------------------7---5---3-----------------------3---5---|

2nd guitar is playing 2x:
C#|----12--14~-------\-----9---11~--------h12p11p9h11~-----------\-|
G#|12------------------9-------------------------------------------|
E |----------------------------------------------------------------|
B |----------------------------------------------------------------|
F#|----------------------------------------------------------------|
C#|----------------------------------------------------------------|

C#|----12--14~-------\-----7---------------------------------------|
G#|12------------------7-------6-----------------------------------|
E |----------------------------------------------------------------|
B |----------------------------------------------------------------|
F#|----------------------------------------------------------------|

Then both guitars:
C#|----------------------------------------------------------------|
G#|----------------------------------------------------------------|
E |----------------------------------------------------------------|
B |----------------------------------------------------------------|
F#|--------------------------------4-------------------------------|
C#|1-----------------------1---3-------------------3-------4---3---|

One g. only:
C#|----------------------------------------------------------------|
G#|----------------------------------------------------------------|
E |----------------------------------------------------------------|
B |----7-------5---------------4-----------------------------------|
F#|----------------------------------------7~----------------------|
C#|0-------0---------------0-----------0---------------------------|
p.m. . . .
C#|----------------------------------------------------------------|
G#|----------------------------------------------------------------|
E |----------------------------------------------------------------|
B |----7-------5---------------4-------5---7~----------------------|
F#|----------------------------------------------------------------|
C#|0-------0---------------0---------------------------------------|
. . .
These two bars are played 4 times. After second repeat 2nd guitar comes
with (I`m not shure about this part, because it is detuned. Maybe octave
up\down. If you have e-guitar, try to take it - I have the acoustic only):

C#|----------------------------------------------------------------|
G#|12--13--13--12--13--13--12--13-------15---12--------------------|
E |----------------------------------------------------------------|
B |----------------------------------------------------------------|
F#|----------------------------------------------------------------|
C#|----------------------------------------------------------------|
three times, then 1st guitar stops playing.

C#|------------------------|
G#|12--13--13--12--13--13--| Many times. I`m not payed for
E |------------------------| counting
B |------------------------|
F#|------------------------|
C#|------------------------|

And again 8x (the 12--13--13-- riff ends after 4th repeat I think):
C#|----------------------------------------------------------------|
G#|----------------------------------------------------------------|
E |----------------------------------------------------------------|
B |----------------9-----------------------9-------8-------7-------|
F#|2---------------7-------2---------------7-------6-------5-------|
C#|0---0---0---0-----------0---0---0---0---------------------------|
p.m. . . . . .

Then:
2nd guitar
C#|----------------------------------------------------------------|
G#|9---------------------------------------------------------------|
E |----------------11----------9-----------------------------------|
B |----------------------------------------------------------------|
F#|----------------------------------------------------------------|
C#|----------------------------------------------------------------|
3 times

C#|----------------------------------------------------------------|
G#|9---------------------------10------12--9-----------------------|
E |----------------11----------------------------------------------|
B |----------------------------------------------------------------|
F#|----------------------------------------------------------------|
C#|----------------------------------------------------------------|

C#|----------------------------------------------------------------|
G#|12--13--13--12--13--13--12--13------15--12----------------------|
E |----------------------------------------------------------------|
B |----------------------------------------------------------------|
F#|----------------------------------------------------------------|
C#|----------------------------------------------------------------|
3 times

C#|----------------------------------------------------------------|
G#|12--13--13--12--13--13--12--13--13--12--13--13--12--13--15------|
E |----------------------------------------------------------------|
B |----------------------------------------------------------------|
F#|----------------------------------------------------------------|
C#|----------------------------------------------------------------|

Now the rhythm changes:
C#|----------------------------------------------------------------|
G#|----------------------------------------------------------------|
E |----------------------------------------------------------------|
B |----------------------------------------------------------------|
F#|7-----------------------7---5---9-----------------------9---7---|
C#|5-----------------------5---3---7-----------------------7---5---|

C#|----------------------------------------------------------------|
G#|----------------------------------------------------------------|
E |----------------------------------------------------------------|
B |------------------------------------------------9---------------|
F#|5-----------------------5---7---2---------------7-------2-------|
C#|3-----------------------3---5---0---0---0---0-----------0---0---|
p.m. . . .
C#|----------------------------------------------------------------|
G#|----------------------------------------------------------------|
E |----------------------------------------------------------------|
B |--------5-------7-------6---------------------------------------|
F#|--------7-------6-------5-------7-----------------------7---5---|
C#|0---0---------------------------5-----------------------5---3---|
. .
C#|----------------------------------------------------------------|
G#|----------------------------------------------------------------|
E |----------------------------------------------------------------|
B |----------------------------------------------------------------|
F#|9-----------------------9---7---5-----------------------5---7---|
C#|7-----------------------7---5---3-----------------------3---5---|

2nd guitar is now playing 2x:
C#|----12--14~-------\-----9---11~--------h12p11p9h11~-----------\-|
G#|12------------------9-------------------------------------------|
E |----------------------------------------------------------------|
B |----------------------------------------------------------------|
F#|----------------------------------------------------------------|
C#|----------------------------------------------------------------|

C#|----12--14~-------\-----7---------------------------------------|
G#|12------------------7-------------------------------------------|
E |----------------------------9-----------------------------------|
B |----------------------------------------------------------------|
F#|----------------------------------------------------------------|
C#|----------------------------------------------------------------|

1st guitar 2x:
C#|----------------------------------------------------------------|
G#|----------------------------------------------------------------|
E |----------------------------------------------------------------|
B |----7-------5---------------4-----------------------------------|
F#|----------------------------------------7~----------------------|
C#|0-------0---------------0-----------0---------------------------|
p.m. . . .
C#|----------------------------------------------------------------|
G#|----------------------------------------------------------------|
E |----------------------------------------------------------------|
B |----7-------5---------------4-------5---7~----------------------|
F#|----------------------------------------------------------------|
C#|0-------0---------------0---------------------------------------|
. . .

then 2nd guitar comes with:
C#|----------------------------------------------------------------|
G#|----------------------------------------------------------------|
E |------------4---------------5-------7---4~---------------------\|
B |----7-----------------------------------------------------------|
F#|----------------------------------------------------------------|
C#|0-------0-------------------------------------------------------|
p.m. .
C#|----------------------------------------------------------------|
G#|----------------------------------------------------------------|
E |----------------------------------------------------------------|
B |----7-------5---------------4-------5---7~----------------------|
F#|----------------------------------------------------------------|
C#|0-------0---------------0---------------------------------------|
. . .
Played over and over (I think that 2nd guitar`s riff is played only two
times, then it is playing the same as the 1st guitar...) UFF...

Transcribed by [email protected]
Başa dön
Kullanıcı profilini gör Özel mesaj gönder E-mail'i gönder Yahoo Messenger MSN Messenger
Novembre
Geçerken Uğrayan
Geçerken Uğrayan


Kayıt: Oct 09, 2004
Mesajlar: 5


MesajTarih: Sal Ksm 23, 2004 7:32 pm    Mesaj konusu: THE thrash OF NAKED LIMBS Alıntıyla Cevap Ver
Mesaj: #17   

The Thrash of Naked Limbs

Well, here is a good MDB song to play on the bass. I thought that I
would share what I know of it with the rest of you. Don't blame me if some
of it is a tad off. I figured this out with only three strings on my bass,
namely the E, A, and D strings.

First Riff - Intro

GNeutral-----------------------------------|
DNeutral---------------------------7-7-8-7-|
ANeutral----5-6--3--5--8-6-6/10-10---------|
ENeutral-3---------------------------------|

Repeat the first riff four times (the 2nd guitar comes in on the third
repeat).

Second Riff - First two verses

GNeutral-----------------------------------------------------|
DNeutral---7-8--7-------7-8--7-------7-8--7-----5--7--9-10-9-|
ANeutral-5---------7--5---------8--5---------7---------------|
ENeutral-----------------------------------------------------|

Repeat the second riff until the end of the second verse (the vocals begin
at the second repetition of riff 2)

That's all I've got so far. I hope to come up with more soon; maybe I'll
tab this song for guitar as well. We'll see.


Transcribed by Darkdread
Başa dön
Kullanıcı profilini gör Özel mesaj gönder E-mail'i gönder Yahoo Messenger MSN Messenger
Novembre
Geçerken Uğrayan
Geçerken Uğrayan


Kayıt: Oct 09, 2004
Mesajlar: 5


MesajTarih: Sal Ksm 23, 2004 7:33 pm    Mesaj konusu: TWO WINTERS ONLY Alıntıyla Cevap Ver
Mesaj: #18   

Two Winters Only
I've only tabbed the opening quiet section so far:

Guitar 1:
e--------------------------------------
b--------------------------------------
g--------------------------------------
d------11----9---------11--------------
a---11----11---11---11----11-9-11-12-11
e-9---------------9--------------------

This riff is repeated and then:

e---------------------------------
b---------------------------------
g---------------------------------
d-----7-----7---------7-----7-----
a---7---7-----7-----7---7-----7---
e-5-------5-----5-5-------5-----5-

|--------------------------------
|--------------------------------
|--------------------------------
|----9-----9---------9-----9-----
|--9---9-----9-----9---9-----9---
|-7-------7-----7-7-------7-----7

Then go back and just keep on repeating.
Listen to see where guitar 2 comes in. It basically plays this or a variation of this:

e-------------------------
b-------------------------
g-------------------------
d-11-11-13-14-16-14-13-11-
a-------------------------
e-------------------------

|-------------------------------------------------------------
|-------------------------------------------------------------
|-------------------------------------------------------------
|-11-11-13-14-13-1314-16-14-13-13-14-16-14-13-11-14-13-14-13-7
|-------------------------------------------------------------
|-------------------------------------------------------------

e-----------------------------------------
b-----------------------------------------
g-9-11-9-8-6------------------------------
d------------7-6-4-2-4-2-1/2\1-1-2-4-2-1--
a----------------------------------------4
e-----------------------------------------

Tabs supplied by Vedderman ([email protected])
Başa dön
Kullanıcı profilini gör Özel mesaj gönder E-mail'i gönder Yahoo Messenger MSN Messenger
Novembre
Geçerken Uğrayan
Geçerken Uğrayan


Kayıt: Oct 09, 2004
Mesajlar: 5


MesajTarih: Sal Ksm 23, 2004 7:35 pm    Mesaj konusu: UNDER YOUR WINGS Alıntıyla Cevap Ver
Mesaj: #19   

Under Your Wings and Into Your Arms
Tune down 3 steps to C#.

Rhy. Fig. 1
I-------------------------I-------------------------I-------------------------I
I-------------------------I-------------------------I-------------------------I
I-------------------------I-------------------------I-------------------------I
I-------------------------I-------------------------I-------------------------I
I-------------------------I-------------------------I-------------------------I
I-0-2-2-2-2-2-2-2-2-2-2-2-I-2-5-5-5-5-5-5-5-5-5-5-5-I-2-3-3-3-3-3-3-3-3-3-3-3-I


I-------------------------I-------------------------I-------------------------I
I-------------------------I-------------------------I-------------------------I
I-------------------------I-------------------------I-------------------------I
I-------------------------I-------------------------I-------------------------I
I-------------------------I-------------------------I-------------------------I
I-3-3-3-3-3-3-3-3-3-3-3-3-I-0-2-2-2-2-2-2-2-2-2-2-2-I-2-5-5-5-5-5-5-5-5-5-5-5-I


end Rhy. Fig. 1 I w/ Rhy. Fig. 1
(2Dead
I w/ Lead 1
(4Dead
I-------------------------I----------------------------I----------------------I
I-------------------------I----------------------------I----------------------I
I-------------------------I----------------------------I----------------------I
I-------------------------I----------------<3>-<3>-<3>-I----------------------I
I-------------------------I----------------------------I----------------------I
I-2-3-3-3-3-3-3-3-3-3-3-3-I-3-3-3-3-3-3----------------I----------------------I


Lead 1 end
Lead 1
I------------I-9-------------------I------------I----------------I------------I
I----------7-I-------10--8------10-I-7----------I----------------I------------I
I------------I---------------------I------------I-9-----7--------I-5----------I
I------------I---------------------I------------I----------------I------------I
I------------I---------------------I------------I----------------I------------I
I------------I---------------------I------------I----------------I------------I



Rhy. Fig. 2
I-------------------------I-------------------------I-------------------------I
I-------------------------I-------------------------I-------------------------I
I-------------------------I-------------------------I-------------------------I
I-9-9-9-9-9-9-9-9-9-9-9-9-I-8-8-8-8-8-8-5-5-5-4-4-4-I-5-5-5-5-5-5-4-4-4-4-4-4-I
I-7-7-7-7-7-7-7-7-7-7-7-7-I-6-6-6-6-6-6-3-3-3-2-2-2-I-3-3-3-3-3-3-2-2-2-2-2-2-I
I-------------------------I-------------------------I-------------------------I


end Rhy. Fig. 2 I w/ Rhy. Fig. 2 I w/ Rhy. Fig 1 I w/ Rhy.
Fig.2
I (3Dead I (2Dead I
(4Dead
I-------------------------I----------------I---------------I---------------I
I-------------------------I----------------I---------------I---------------I
I-------------------------I----------------I---------------I---------------I
I-4-4-4-4-4-4-5-5-5-7-7-7-I----------------I---------------I---------------I
I-2-2-2-2-2-2-3-3-3-5-5-5-I----------------I---------------I---------------I
I-------------------------I----------------I---------------I---------------I


Rhy. Fig. 3 end Rhy. Fig.3 I w/
Rhy.
I Fig.
3 (3Dead
I-------------I-------------I-----------I-------------------------I-----------I
I-------------I-------------I-----------I-------------------------I-----------I
I-------------I-------------I-----------I-9-9-9-9-9-9-9-9-9-9-9-9-I-----------I
I-5------7--5-I-4------5--4-I-2---------I-9-9-9-9-9-9-9-9-9-9-9-9-I-----------I
I-5------7--5-I-4------5--4-I-2---------I-7-7-7-7-7-7-7-7-7-7-7-7-I-----------I
I-3------5--3-I-2------3--2-I-0---------I-------------------------I-----------I





Rhy. Fig. 4
I-------------------------I-------------------------I-------------------------I
I-------------------------I-------------------------I-------------------------I
I-4-4-4-4-4-4-5-5-5-4-4-4-I-2-2-2-2-2-2-2-2-2-2-2-2-I-0-0-0-0-0-0-2-2-2-3-3-3-I
I-2-2-2-2-2-2-2-2-2-2-2-2-I-2-2-2-2-2-2-2-2-2-2-2-2-I-0-0-0-0-0-0-0-0-0-0-0-0-I
I-------------------------I-------------------------I-------------------------I
I-------------------------I-------------------------I-------------------------I


end Rhy. Fig.4 I w/ Rhy. Fig. 4 (5Dead
I-------------------------I---------------------------------------------------I
I-------------------------I---------------------------------------------------I
I-2-2-2-2-2-2-2-2-2-2-2-2-I---------------------------------------------------I
I-0-0-0-0-0-0-0-0-0-0-0-0-I---------------------------------------------------I
I-------------------------I---------------------------------------------------I
I-------------------------I---------------------------------------------------I


Rhy. Fig. 5
I-------------------------I-------------------------I-------------------------I
I-------------------------I-------------------------I-------------------------I
I-------------------------I-------------------------I-------------------------I
I-9-9-9-9-9-9-8-8-8-8-8-8-I-5-5-5-5-5-5-4-4-4-4-4-4-I-5-5-5-5-5-5-7-7-7-7-7-7-I
I-7-7-7-7-7-7-6-6-6-6-6-6-I-3-3-3-3-3-3-2-2-2-2-2-2-I-3-3-3-3-3-3-5-5-5-5-5-5-I
I-------------------------I-------------------------I-------------------------I


end Rhy. Fig. 5 I w/ Rhy. Fig. 5 (1Dead I w/ Rhy. Fig. 1 (3Dead
I I w/ Lead 1 (4Dead
I----------------------------I---------------------I--------------------------I
I----------------------------I---------------------I--------------------------I
I----------------------------I---------------------I--------------------------I
I-9-9-9-9-9-9-10-10-10-9-9-9-I---------------------I--------------------------I
I-7-7-7-7-7-7--8--8--8-7-7-7-I---------------------I--------------------------I
I----------------------------I---------------------I--------------------------I



I-------------------------I-------------------------I-------------------------I
I-------------------------I-------------------------I-------------------------I
I-------------------------I-------------------------I-------------------------I
I-9-9-9-9-9-9-8-8-8-8-8-8-I-5-5-5-5-5-5-4-4-4-4-4-4-I-5-5-5-5-5-5-7-7-7-7-7-7-I
I-7-7-7-7-7-7-6-6-6-6-6-6-I-3-3-3-3-3-3-2-2-2-2-2-2-I-3-3-3-3-3-3-5-5-5-5-5-5-I
I-------------------------I-------------------------I-------------------------I



I----------------------------I-------------------------I
I----------------------------I-------------------------I
I----------------------------I-------------------------I
I-9-9-9-9-9-9-10-10-10-9-9-9-I-9-9-9-9-9-9-8-8-8-8-8-8-I
I-7-7-7-7-7-7--8--8--8-7-7-7-I-7-7-7-7-7-7-6-6-6-6-6-6-I
I----------------------------I-------------------------I



I-------------------------I-------------------------I-----------------------I
I-------------------------I-------------------------I-----------------------I
I-------------------------I-------------------------I-----------------------I
I-5-5-5-5-5-5-2-2-2-2-2-2-I-5-5-5-5-5-5-7-7-7-7-7-7-I-9--9--9--10-----9-----I
I-3-3-3-3-3-3-2-2-2-2-2-2-I-3-3-3-3-3-3-5-5-5-5-5-5-I-7--7--7---8-----7-----I
I-------------------------I-------------------------I-----------------------I


w/ Rhy.I w/ Rhy.I Rhy. Fig. 6 end Rhy. Fig. 6 I w/
Rhy.
Fig.3 I Fig.1 I I
Fig 6(7Dead
(4Dead I w/Lead1I I
w/Lead 2
I------I--------I-------------------------I-------------------------I--------II
I------I--------I-------------------------I-------------------------I--------II
I------I--------I-------------------------I-------------------------I--------II
I------I--------I-------------------------I-------------------------I--------II
I------I--------I-------------------------I-------------------------I--------II
I------I--------I-0-2-2-2-2-2-2-2-2-2-2-2-I-0-2-2-2-2-2-5-5-5-5-5-5-I--------II




Lead 2
I------------I-9-------------------I------------I
I----------7-I-------10--8------10-I-7----------I
I------------I---------------------I------------I
I------------I---------------------I------------I
I------------I---------------------I------------I
I------------I---------------------I------------I


Transcribed by Philip Grössl ([email protected])
Başa dön
Kullanıcı profilini gör Özel mesaj gönder E-mail'i gönder Yahoo Messenger MSN Messenger
Mesajları göster:   
Yeni Başlık Gönder   Cevap Gönder    metaltr.net Forum Ana Sayfası -> Gitar / Tab Tüm saatler GMT +1 Saat
1. sayfa (Toplam 1 sayfa)


 
Forum Seçin:  
Bu forumda yeni konular açamazsınız
Bu forumdaki mesajlara cevap veremezsiniz
Bu forumdaki mesajlarınızı değiştiremezsiniz
Bu forumdaki mesajlarınızı silemezsiniz
Bu forumdaki anketlerde oy kullanamazsınız


Powered by phpBB © 2001, 2002 phpBB Group
Türkçe Çeviri : Onur Turgay & Erdem Çorapçıoğlu
phpBB template by Spectre :: Ported for PHP-Nuke by nukemods.com
Forums ©
MetalTR.NET'de yayınlanan tercümeler, biyografiler, köşe yazıları, resimler ve sair materyaller izinsiz ve kaynak gösterilmeksizin kullanılamaz.
Copyright © 2004-2012 MetalTR.NET
| Yasal Uyarı



Sitemap - forumtags -
Web site engine code is Copyright © 2003 by PHP-Nuke. All Rights Reserved. PHP-Nuke is Free Software released under the GNU/GPL license.
Sayfa Üretimi: 0.24 Saniye
Untitled Document